Stonefree - Listin Chords & Tabs

 

Listin Chords & Tabs

Stonefree Chords & Tabs

Version: 1 Type: Tab 0 ratings
1 star 2 stars 3 stars 4 stars 5 stars
comments

Listin Tab

   
------------------------------------------------------------------------------------------
LISTEN   / tab /
(Eisenhower Meniolas)		"Listen"
------------------------------------------------------------------------------------------
Intro / Stanza Parts:
        E         F#         C
Let ring...
D#-----(0)-------0---------3--------------------------------------|
A#------3----------3-------3--3-----------------------------------|
F#----0------0----(0)---0-(0)-0-----------------------------------|
C#--2-----h4------------------------------------------------------|
G#--------------------3-------------------------------------------|
D#----------------------------------------------------------------|
Chorus:
            C                  D                  E                  C
D#----------3--------------5-------------2----------------3-----|
A#----------3--3-----------5-5-----------3-3--------------3--3--|
F#-------0-(0)-0--------0--0-0---------0---0-----------0-(0)-0--|
C#----(2)------------(4)---------------------------(2)----------|
G#-----3--------------5--------------2--------------3-----------|
D#--------------------------------------------------------------|
----------------------------------------------------------------|
Intro:

Stanza 1 - (E-F#-C)
[ Tab from: http://www.guitartabs.cc/tabs/s/stonefree/listin_tab.html ]
Close the door. I feel a breeze.
Hold me please. I hate to be alone.
It's a cold night. Turn off the light.
Take my hand and..

Chorus - (Chords: C - D - E - C)

Listen to these things I have to say.
Please understand, she left me all alone again.

Stanza 2 - (E-F#-C)

Clear the room of every memory.
(I) don't want that song back on.
It's an endless maze. Take away this haze.
Mend my heart and.

Chorus - (Chords: C - D - E - C)

Listen to these things I have to say.
Please understand, she left me all alone again.

Guitar solo (same chords as stanza)
Drum solo (Chords: D.D - C (4x))
Chorus - (Chords: C - D - E - C)

Listen to these things I have to say.
Please understand, she left me all alone again.

Stanza 3 - (E-F#-C)

Turn away. (I) don't want you to see me cry.
(I) just want things the way they were.
It's so hard to say good bye.
Wipe my tears and.

Chorus - (Chords: C - D - E - C)

Listen to these things I have to say.
Please understand, she left me all alone again.
This I ask of you.
To stay with me `til she comes back.
Oh. `til she comes, `til she comes, `til she comes
Oh. `til she comes, `til she comes back, `til she comes back
------------------------------------------------------------------------------------------
Comments