Stonefree - Listen Chords & Tabs

 

Listen Chords & Tabs

Stonefree Chords & Tabs

Version: 1 Type: Bass Tab 0 ratings
1 star 2 stars 3 stars 4 stars 5 stars
comments

Listen Bass Tab

   
Intro:

G|-------|
D|-------|        (2x)
A|-----3-|
E|-0-2---|

Verse:

G|-------------------|
D|---------4---------|
A|-----------3-3--3--|
E|-0-0-0-2-----------|

Chorus:
[ Tab from: http://www.guitartabs.cc/tabs/s/stonefree/listen_btab.html ]
G|-----------------------------------------------------|
D|-----------------------------------------------------|   (2x)
A|-3-3--3--3-3--5-5--5--5-5--2-2--2--2-2--3-3--3--3-3--|
E|-----------------------------------------------------|

Brigde:

G|-------------------|
D|---------4---------|        (4x)
A|-----------3-3--3--|
E|-0-0-0-2-----------|

G|---------|
D|---------|                  (4x)
A|-5-2-5-3-|
E|---------|
Comments