Stone Temple Pilots - Wonderful Chords & Tabs

 

Wonderful Chords & Tabs

Stone Temple Pilots Chords & Tabs

Version: 1 Type: Tab 0 ratings
1 star 2 stars 3 stars 4 stars 5 stars
comments

Wonderful Tab

Artist: Stone Temple Pilots
Song: Wonderful
Album: Shangri-La Dee Da
Transcribed by: Dan Caruthers
E-mail: New Yardbirds@aol.com
Website:www.angelfire.com/ct2/Radioshows/tabs.html


This is the intro. He plays different forms of C.
When I put an "h" before a number, it means hammer-on
to that number fret. 

Play this twice. Intro:
e-0----0--0--0----0-0-0-0-0--------------------------
b-1----1--1--1----1-1-1-1-1--------------------------
g-0----0--0--0----0-0-0-0-0--------------------------
d-2h3--2--0--0h2--2-2-2-2-2--------------------------
a-3----3--3--3----3-3-3-3-3--------------------------
e----------------------------------------------------

This is right after the intro. Play it twice.
"If I were to die this morning..."
e--0------1-----1-----1--------------------------------
b--1------3-----1-----3--------------------------------
g--0------3-----2-----3--------------------------------
d--2------3-----3-----3--------------------------------
a--3------1-----3-----1--------------------------------
e---------------1--------------------------------------

After that, the heavier part comes in. Add some Distortion.
This is it.

e-1---4---3---0---4---3-------------------------------
b-1---4---5---1---4---3-------------------------------
g-2---5---5---2---5---4-------------------------------
d-3---6---5---2---6---5-------------------------------
a-3---6---3---0---6---5-------------------------------
e-1---4-----------4---3-------------------------------

After that part, play this line again twice.
e--0------1-----1-----1--------------------------------
b--1------3-----1-----3--------------------------------
g--0------3-----2-----3--------------------------------
d--2------3-----3-----3--------------------------------
a--3------1-----3-----1--------------------------------
e---------------1--------------------------------------


And after that, play this line again.
e-1---4---3---0---4---3-------------------------------
b-1---4---5---1---4---3-------------------------------
g-2---5---5---2---5---4-------------------------------
d-3---6---5---2---6---5-------------------------------
a-3---6---3---0---6---5-------------------------------
e-1---4-----------4---3-------------------------------

[ Tab from: http://www.guitartabs.cc/tabs/s/stone_temple_pilots/wonderful_tab.html ]
Now play this twice.
e--4---1---0---0---0---0----------------------------------
b--4---3---1---1---1---1----------------------------------
g--5---3---0---0---0---0----------------------------------
d--6---3---2h3-2---0---2----------------------------------
a--6---1---3---3---3---3----------------------------------
e--4------------------------------------------------------

When I put "b" after a number, it means bend that fret
to the number fret in parenthesis. If I put a double b
(bb)after a note, it means to bend to the note in parnthesis
and then bend back to it.
Solo:
e---------------------------------------------------
b--------10-----13-10-11----------13-11-10----------
g-10b(12)------------------12b(14)----------12------
d---------------------------------------------------
a---------------------------------------------------
e---------------------------------------------------

e---------------------------------------------------
b---------------------------------------------------
g--------------------9-12-9-------12-9--------------
d-11bb(12)---11b(12)--------10-12-------------------
a---------------------------------------------------
e---------------------------------------------------

e---------------------------------------------------
b---------------------------------------------------
g---------------------------------------------------
d---------------------------------------------------
a-10-12b(13)--10-12b(13)--10-12b(13)----------------
e---------------------------------------------------

e------------------------------------------12----------
b------------------------------------10-13----13-11-13-
g-12b(14)-9---------------------9-12-------------------
d-------------10-10bb(12)----10------------------------
a------------------------------------------------------
e------------------------------------------------------

e---------------------------------------------------
b--------------11---11-11-11-11---------------------
g------9-10-12------12-12-12-12---------------------
d-10------------------------------------------------
a---------------------------------------------------
e---------------------------------------------------


OK, now i've tabbed out the whole song. After the solo, just 
look back at the rest of the song. There is nothing new after
the solo. Peace.

P.S. If you liked my tab, please visit my website
and check out some other tabs.


Comments