Stone Temple Pilots - Unglued Chords & Tabs

 

Unglued Chords & Tabs

Stone Temple Pilots Chords & Tabs

Version: 1 Type: Bass Tab 0 ratings
1 star 2 stars 3 stars 4 stars 5 stars
comments

Unglued Bass Tab

UNGLUED
==========
By: Stone Temple pilots
From:Purple
Bassist: Robert DeLeo


(intro riff)



---------| ---------------- |
---------|*----------------*|
---------|*---------5-7-5--*|
------12\| -0-0-7-0-------- |
                 


verses:

|----------------|----------------|----------------|----------------- |
|_---------------|----------------|----------------|-----------------*|
|----------------|----------------|----------------|-----------------*|
|-0-0-0-0--------|-0-0-0-0--------|-0-0-0-0--------|-0-0-0-0-3---3--- |
                                                   (play fill 1 2nd time)
                                                      
Fill 1:
|-----------------|
|-----------------|
|---------3-0-3-5-|
|-0-0-0-0---------|


Chorus riff:
[ Tab from: http://www.guitartabs.cc/tabs/s/stone_temple_pilots/unglued_btab.html ]
| -----------------|----------------- |
|*-----------------|-----------------*|
|*-7---7-0-3-3-3-3-|---------3-3-3-3-*|
| -----------------|-5---5-0--------- |


Bridge:

|-----------------|-----------------|-----------------|----------------|
|-----------------|-----------------|-----------------|----------------|
|-5---5-0-5-5-5-5-|-4---4-0-4-4-4-4-|-3---------------|----------------|
|-----------------|-----------------|-----------------|----------------|
                                      sustain-------------------------|

Performance notes:

Intro riff(4x)
  1st Verse 
     Chorus riff (4x)
     Bridge
Intro riff(4x)
  2nd verse
     Chorus riff(4x)
     Bridge
Solo (intro riff 8x)
  3rd verse
     chorus riff (4x)
     Bridge
End


Transcribed by BassASS




Comments