Stone Temple Pilots - Tumble In The Rough Chords & Tabs

 

Tumble In The Rough Chords & Tabs

Stone Temple Pilots Chords & Tabs

Version: 4 Type: Tab 0 ratings
1 star 2 stars 3 stars 4 stars 5 stars
comments

Tumble In The Rough Tab

-------------------------------------------------------------------------------
			     SONG NAME Tumble In The Rough- Band Name Stone Temple Pilots
-------------------------------------------------------------------------------
Tabbed by: Sadscaryguy
Email:

Tuning: Standard

e|----------------------------------|
B|----------------------------------|
G|----------------------------------|
D|-----2-2-2-2-2-2--3--3-3-3-3-3-3--|
A|----4----4--4-4---4---4--4--------|
E|----------------------------------|

e|-----------------------------------------------------------------------------------|
B|-----------------------------------------------------------------------------------|
G|-----------------------------------------------------------------------------------|
D|-----------------------------------------------------------------------------------|
A|-----------5----5---5------8-----8------8------------------------------------------|
E|------3-----3----3--------6----6------6--------------------------------------------|
[ Tab from: http://www.guitartabs.cc/tabs/s/stone_temple_pilots/tumble_in_the_rough_tab_ver_4.html ]
e|-----------------------------------------------------------------------------------|
B|-----------------------------------------------------------------------------------|
G|--------------5-----5-----5------7--7---7------------------------------------------|
D|--------------5-----5----5--------7--7-7-------------------------------------------|
A|----------3-------3------3----5---5--5---------------------------------------------|
E|-----------------------------------------------------------------------------------|

e|---------------------------------------------------------------------------------------|
B|---------------------------------------------------------------------------------------|
G|---------------------------------------------------------------------------------------|
D|------2-2--2-2-2---3--3--3--3--3-------------------------------------------------------|
A|-----4---4---4-4-----------------------------------------------------------------------|
E|---------------------------------------------------------------------------------------|

e|-----------------------------------------------------------------------------------|
B|-----------------------------------------------------------------------------------|
G|-----------------------------------------------------------------------------------|
D|-----------------------------------------------------------------------------------|
A|------------5-----5------5------8----8-----8---------------------------------------|
E|--------3-------3-------3-----6------6--6------------------------------------------|
Comments