Stone Temple Pilots - Still Remains Chords & Tabs

 

Still Remains Chords & Tabs

Stone Temple Pilots Chords & Tabs

Version: 1 Type: Tab 1 rating
1 star 2 stars 3 stars 4 stars 5 stars
comments

Still Remains Tab

   
  Band - Stone Temple Pilots
  Song - Still Remains
    CD - Purple
Tabber - Corbin (stratocaster_1998@yahoo.com)
------------------------------------------------------------------------------------------------
This is probably my favorite STP song to date...and I didn't see a 'right' version for it 
anywhere, so, I hope someone has fun with this.

Strum the pre-chorus accordingly, listen to the tune to here the patterns.


Intro:
e--0----0--0--0--0---0----0----0--0--0---0----0-0-0------------
B--0----2--2--2--2---2----0----2--2--2---0----2-3-2------------
G--1----2--2--2--2---2----1----2--2--2---1----2-2-2------------
D--2----2--2--2--2---2----2----2--2--2---2----2-2-2------------4x
A--0----0--0--0--0---0----0----0--0--0---0----0-0-0------------
E--------------------------------------------------------------


e--0---0---5---------
B--2---5---3---------
G--2---6---4---------
D--2-------5---------
A--0-----------------
E--------------------


[ Tab from: http://www.guitartabs.cc/tabs/s/stone_temple_pilots/still_remains_tab.html ]
Verse:
e--0----0--0--0--0---0----0----0--0--0---0----0-0-0------------
B--0----2--2--2--2---2----0----2--2--2---0----2-3-2------------
G--1----2--2--2--2---2----1----2--2--2---1----2-2-2------------
D--2----2--2--2--2---2----2----2--2--2---2----2-2-2------------
A--0----0--0--0--0---0----0----0--0--0---0----0-0-0------------
E--------------------------------------------------------------



Pre-Chorus:
e-----------------------------------------
B-----------------------------------------
G--2-2-2-2-/-10-10-10-10---10-/-12--------
D--2-2-2-2-/-10-10-10-10---10-/-12--------
A--0-0-0-0----0--0--0--0----8-/-10--------
E-----------------------------------------



Chorus Chords:
   F    F ?    G     A
e--1-----0-----3-----0-------------------------------------
B--1-----0-----3-----2-------------------------------------
G--2-----2-----0-----2-------------------------------------
D--3-----3-----0-----2-------------------------------------
A--3-----3-----2-----0-------------------------------------
E--1-----1-----3------------------------------------------
Comments