Stone Temple Pilots - Sour Girl Chords & Tabs

 

Sour Girl Chords & Tabs

Stone Temple Pilots Chords & Tabs

Version: 5 Type: Tab 0 ratings
1 star 2 stars 3 stars 4 stars 5 stars
comments

Sour Girl Tab

   
name: Zack

artist: Stone Temple Pilots

SongTitle: Sour Girl

Tabs: Song:  "Sour Girl"
Band:  Stone Temple Pilots
Album:  No. 4
Tabbed by:   Zack
Email:  Serpaco007@aol.com
Date:  5/20/00

This TAB should be pretty darn close.  I saw STP perform this song on 
Leno the
 other night so it's quite accurate.
   									  
										                                                                                
Sour Girl

Chords:
G2? {xx5435}
F2? {xx7565}
F   {133211}
G   {355433}
Bb2 {688766}
Bb  {x1333x}
C   {8,10,10,9,8,8}
D   {10,12,12,11,10,10} I'm getting a headache...

Intro:   Twice
e---------------------------------------------------1/3--3---------------
B---------------------------------------------------1/3--3---------------
G---------------------------------------------------3/4--4---------------
D----------------------------------------------3--3-3/5--5---------------
A----5-7-8-8-8-7-----5-6-6-6-5-----------------3--3-3/5--5---------------
E-----------------8-------------7--5-8-8-8-7---1--1-1/3--3---------------

@ Use your pinky to hammer over onto that G string.

Verses:                                               @
e----5---5-----1---3--3--3-------------------------------------------
B----3---6-----1---3--3--3-------------------------------------------
G----4---5-----2---4--5--4-------------------------------------------
D----5---7-----3---5--x--5-------------------------------------------
A--------------3---5--5--5-------------------------------------------
E--------------1---3--3--3-------------------------------------------



I'm going to put 2 different choruses here.  The first chorus is the 
close to 
actual chords Dean Deleo uses.  I think he changes up the order, so 
feel free to 
interchange the chord shapes how you like.  The second chorus is an 
easier 
version.  It's what I played before I saw them perform it on Leno.  
Sorry, no
rhythm is implied here.  Use your imagination.
[ Tab from: http://www.guitartabs.cc/tabs/s/stone_temple_pilots/sour_girl_tab_ver_5.html ]
Chorus:  First                                                                                                        
*            *
e----6-----5-----8-----3---------x-----1-----3----8-----10----------------
B----6-----6-----8-----3---------3-----1-----3----8-----10----------------
G----7-----5-----9-----4---------3-----2-----4----9-----11----------------
D----8-----7-----10----5---------3-----3-----5----10----12----------------
A----8-----x-----10----5---------1-----3-----5----10----12----------------
E----6-----5-----8-----3---------x-----1-----3----8-----10----------------
               Bb            F                 C              G                          
Bb             F               G           C                 D
* = single strum

Chorus:  Second
e----6-----1-----8-----3---------6-----1-----3----------------------------
B----6-----1-----8-----3---------6-----1-----3----------------------------
G----7-----2-----9-----4---------7-----2-----4----------------------------
D----8-----3-----10----5---------8-----3-----5----------------------------
A----8-----3-----10----5---------8-----3-----5----------------------------
E----6-----1-----8-----3---------6-----1-----3----------------------------
               Bb            F                C              G                           
Bb            F               G

Verse:
She turned away, what was she looking at
She was a sour girl the day that she met me
Hey, what are you looking at?
She was a happy girl the day that she left me

                                        
She turned away, what was she looking at                                          
She was a sour girl the day that she met me                           
Hey, what are you looking at?                                      
She was a happy girl when she left me

Chorus:
What would you do?              
What would you do if I follow you?                 
What would you do?
I follow

Verse:
Don't turn away, what are you looking at?
He was so happy on the day that he met her
Say, what are you looking at?
I was a superman, the looks are deceiving

The rollercoaster ride's a lonely one
I pay the ransom note to stop them from steaming
Hey, what are you looking at?
She was a teenage girl when she met me
Chorus:

Bridge:  Play intro
The girl got reasons
They all got reasons
Chorus:

Verse:
Hey, what are you looking at?
She was a happy girl the day that she left me
The day that she left me ... The day that she left me
She was a happy girl the day that she left me
The day that she left me ... The day that she left me
She was a happy girl the day that she left me

Comments