Stone Temple Pilots - Sour Girl Chords & Tabs

 

Sour Girl Chords & Tabs

Stone Temple Pilots Chords & Tabs

Version: 3 Type: Tab 0 ratings
1 star 2 stars 3 stars 4 stars 5 stars
comments

Sour Girl Tab

Song: Sour Girl
Artist: Stone Temple Pilots
Album: No.4
Submitted and tabbed by Brandon Williams 
e-mail: Bwillia1074@cs.com

These are the basic parts to the song "Sour Girl" by STP.  This tab is 100% correct because Dean DeLeo showed to play it like this in Guitar World magazine.

Intro:
|---------------------------------------------------------------------------------------------------
|---------------------------------------------------------------------------------------------------
|---------5------------5-----------------2--2--2--4--4--4-------------5------------5----------------
|-5-----5------------5--------------5----3--3--3--5--5--5-----------5------------5--------------5---
|-5-7-8-----7----5-6-----5--------5------3--3--3--5--5--5-3\5-5-7-8-----7----5-6-----5--------5-----
|--------------8------------7-7-8-----7/-1--1--1--3--3--3------------------8------------7-7-8-----7-

------------------|
------------------|
-2--2--2--4--4--4-|
-3--3--3--5--5--5-|
-3--3--3--5--5--5-|
-1--1--1--3--3--3-|
[ Tab from: http://www.guitartabs.cc/tabs/s/stone_temple_pilots/sour_girl_tab_ver_3.html ]
Verse:
|----5--5-----5----------------|
|----3--6-----6--1--1--3-------|
|----0--5-----5--2--2--4--5--4-|
|----4--0-----0--3--3--5--5--5-|
|----------------3--3--5--5--5-|
|-5-----6--6-----1--1--3-----3-|

Chorus:                                                       
|-----0--0--0--0---5---5--5--5--5--5--5--0--0--0------------3--3--3--3--------3-
|-----6--6--6--6---6---6--6--6--6--6--6--1--1--1------------3--3--3--3--------3-
|-----5--5--5--5---5---5--5--5--5--5--5--0--0--0-0----0--0--0--0--0--0--------0-
|-----0--0--0--0---5---5--5--5--5--5--5--2--2--2-0h2--0--0--0--0--0--0--------0-
|------------------0---0--0--0--0--0--0--3--3--3-3------------------------------
|-6---6--6--6--6--------------------------------------------3--3--3--3--2^(3)-3-

-------1----1-0-----------------------3----7-----10--------------------------------|
----3-------------1---1--1--1--1--1---0----0-----0---------------------------------|
----3-------------2---2--2--2--2--2---0----0-----0---------------------------------|
----3-------------3---3--3--3--3--3---0----0-----0---------------------------------|
-0--1----1--------3---3--3--3--3--3------------------------------------------------|
------------------1---1--1--1--1--1-(-3\7--7\10--10-)-10--10--10--10--10--10--10\--|

Notes in parenthesis are not played on the recorded version but are played live.
Comments