Stone Temple Pilots - Sour Girl Chords & Tabs

 

Sour Girl Chords & Tabs

Stone Temple Pilots Chords & Tabs

Version: 2 Type: Tab 0 ratings
1 star 2 stars 3 stars 4 stars 5 stars
comments

Sour Girl Tab

   
Sour Girl
Stone Temple Pilots
I noticed that no one tabbed this so I pulled it out of a magazine
I had just got.!I didn\'t tab this! I got it from the August 2000 issue 
of \"Guitar One\" and it was Transcribed by \"Adam Perlmutter\".  Just so 
everyone nows. Any questions or comments can be sent to 
Airbo16@prodigy.net.

Intro
 Gtr.1
|------|-----------------------|------------------|
|------|--------1--------------|-------1----------|
|------|*----0-----2-----------|----0-------------|
|-0--2-|*-3------------------0-|-1--------0-------|
|------|---------------3--3----|-------------2--2-|
|------|-----------------------|------------------|
|Gtr.2						  |
|------|-----------------------|------------------|
|------|-----------------------|------------------|
|-0--0-|*-0--------0---------0-|-0--------0-------|
|------|*--------------2--2----|-------------0--0-|
|------|-----------------------|------------------|
|------|-----------------------|------------------|
[ Tab from: http://www.guitartabs.cc/tabs/s/stone_temple_pilots/sour_girl_tab_ver_2.html ]
		   __________________ ______________
		   |1.		      |2.
|------------------|------------------|--------------|
|------------------|------------------|--------------|
|-------0----------|-----------------*|--------------|
|----0-------------|------------0--2-*|--------------|
|-3--------2--3--3-|-3/5--5--5--------|-3/5--5-------|
|-------------1--1-|-1/3--3--3--------|-1/3--3-------|
|
|-------------1--1-|-1/3--3--3--------|-1/3--3--3--3-|
|-------------1--1-|-1/3--3--3--------|-1/3--3--3--3-|
|-------------2--2-|-2/4--4--4--0--0-*|-2/4--4--4--4-|
|-0--0--0--0--3--3-|-3/5--5--5-------*|-3/5--5--5--5-|
|-------------3--3-|-3/5--5--5--------|-3/5--5--5--5-|
|-------------1--1-|-1/3--3--3--------|-1/3--3--3--3-|

the verse is just D/A Bbmaj9/D F(bar chord) G(bar chord) Gsus4 G

the chorus is Bb F/A C G5

That\'s pretty much it except for the part played with an E-bow
that sounds like it\'s being played by a violen or something
Comments