Stone Temple Pilots - Sin Chords & Tabs

 

Sin Chords & Tabs

Stone Temple Pilots Chords & Tabs

Version: 1 Type: Bass Tab 0 ratings
1 star 2 stars 3 stars 4 stars 5 stars
comments

Sin Bass Tab

          Author/Artist: STP
          Title: Sin
          Album: Core
          Transcribed by: Will Clouston
          Email: lliwc@hotmail.com
          
          after that little bass part at the end repeat the verse 
          faster and then repeat the intro a last time.
          
          
          
          ------------------------------------------------------------------------------
          ------------------------------------------------------------------------------
          ------------------------------------------------------------------------------
          ------------------------------------------------------------------------------
          ------------------------------------------------------------------------------
          -0----------------0-0-----------------0---------------0-0---------------------
           1- 2-3-4-1-2-3-4     1-2-3-4-1-2-3-4 1-2-3-4-1-2-3-4     1-2-3-4-1-2-3-4     
          
          ------------------------------------------------------------------------------
          ------------------------------------------------------------------------------
          ------------------------------------------------------------------------------
          ------------------------------------------------------------------------------
          -5-h7-7-7p5h-7-7-7p-5h7-7----5h-7-7-75h-7-7-75h-7-7---5h7-7-75h-7-7-7-5h7-7---
          ------------------------------------------------------------------------------
           verse                     r                        r                       r 
          
          -|----------------------------------------------------------------------------
          -|----------------------------------------------------------------------------
          -|----------------------------------------------------------------------------
          -|-5-5-----------5-5-------------------5-5-----------------5-5----------------
          -|-----0-------------0---------------------0-------------------0--------------
          -|-------1/3-----------1/3-------3-1---------1/3-------3-1-------1/3----------
             chorus                  1-2-3                 1-2-3                        
          
          
          the part below starts after Weiland sings "sink into the holes in my eyes"
          and before the part where he sings "still shackled to the shadows"
          ------------------------------------------------------------------------------
          ------------------------------------------------------------------------------
          ------------------------------------------------------------------------------
          ------------------------------------------------------------------------------
          -6-6/8-8-8\6-6/8-8-8/10-----------------0h10-10\8\6-6/8----0-8-0-6-6/8-8------
          ------------------------------------------------------------------------------
                                  1-2-3-4-1-2-3-4                                      
          
          -----|------------------------------------------------------------------------
          -----|------------------------------------------------------------------------
          -----|------------------------------------------------------------------------
          -----|---------9--------------------------------------------------------------
          -8/10|-10h8h10---10h8-0h8h10--------------------------------------------------
          -----|-----------------------8-8\6--------------------------------------------
                                             repeat w/some improvising
[ Tab from: http://www.guitartabs.cc/tabs/s/stone_temple_pilots/sin_btab.html ]
Comments