Stone Temple Pilots - Sex Type Thing Chords & Tabs

 

Sex Type Thing Chords & Tabs

Stone Temple Pilots Chords & Tabs

Version: 4 Type: Tab 0 ratings
1 star 2 stars 3 stars 4 stars 5 stars
comments

Sex Type Thing Tab

Sex Type Thing:
--------------------------|--------------------------|--------------------------|--------------------------|
--------------------------|--------------------------|--------------------------|--------------------------|
--------------------------|--------------------------|--------------------------|--------------------------|
--------------------------|--------------------------|--------------------------|--------------------------|
---7---7---7---7--7-7-7---|---7---7---7---7--7-7-7---|---7---7---7---7--7-7-7---|---7---7---7---7--7-7-7---|
-0-7-0-6-0-5-0-3--3-5-3-0-|-0-7-0-6-0-5-0-3--3-5-3-0-|-0-7-0-6-0-5-0-3--3-5-3-0-|-0-7-0-6-0-5-0-3--3-5-3-0-|

---------------------|-------------------------------------|
---------------------|-------------------------------------|
---------------------|.-----------------------------------.|
-4-4---4-4---x-x-x-x-|.-4-4-4-4-4---4---4-4-4-4-4---x-x-x-.|
-4-4---4-4---x-x-x-x-|--4-4-4-4-4---4---4-4-4-4-4---x-x-x--|
-0-2---0-2---x-x-x-x-|--0-2-2-0-2---0---0-2-2-0-2---x-x-x--|

--------------------------|--------------------------|--------------------------|
--------------------------|--------------------------|--------------------------|
--------------------------|--------------------------|--------------------------|
--------------------------|--------------------------|--------------------------|
---7---7---7---7--7-7-7---|---7---7---7---7--7-7-7---|---7---7---7---7--7-7-7---|
-0-7-0-6-0-5-0-3--3-5-3-0-|-0-7-0-6-0-5-0-3--3-5-3-0-|-0-7-0-6-0-5-0-3--3-5-3-0-|

--------------------------|---------------------|-------------------------------------|
--------------------------|---------------------|-------------------------------------|
--------------------------|---------------------|.-----------------------------------.|
--------------------------|-4-4---4-4---x-x-x-x-|.-4-4-4-4-4---4---4-4-4-4-4---x-x-x-.|
---7---7---7---7--7-7-7---|-4-4---4-4---x-x-x-x-|--4-4-4-4-4---4---4-4-4-4-4---x-x-x--|
-0-7-0-6-0-5-0-3--3-5-3-0-|-0-2---0-2---x-x-x-x-|--0-2-2-0-2---0---0-2-2-0-2---x-x-x--|

----------------------------------------------------------------------------------------------|
-------------3--------------------------3--------------------------3------------------------3-|
-4-------2---2-------2--4---4-------2---2--------2--4---4-------2--2-----2-4----4-------2---2-|
-4-------2---0-------2--4---4-------2---0--------2--4---4-------2--0-----2-4----4-------2---0-|
-2-------0---0-------0--2---2-------0---0--------0--2---2-------0--0-----0-2----2-------0---0-|
----------------------------------------------------------------------------------------------|
  I know you want what's on my mind I know you like what's on my mind I know it eats you up inside,
I know you know...

--------------------------|--------------------------|--------------------------|
--------------------------|--------------------------|--------------------------|
--------------------------|--------------------------|--------------------------|
--------------------------|--------------------------|--------------------------|
---7---7---7---7--7-7-7---|---7---7---7---7--7-7-7---|---7---7---7---7--7-7-7---|
-0-7-0-6-0-5-0-3--3-5-3-0-|-0-7-0-6-0-5-0-3--3-5-3-0-|-0-7-0-6-0-5-0-3--3-5-3-0-|

--------------------------|---------------------|-------------------------------------|
--------------------------|---------------------|-------------------------------------|
--------------------------|---------------------|.-----------------------------------.|
--------------------------|-4-4---4-4---x-x-x-x-|.-4-4-4-4-4---4---4-4-4-4-4---x-x-x-.|
---7---7---7---7--7-7-7---|-4-4---4-4---x-x-x-x-|--4-4-4-4-4---4---4-4-4-4-4---x-x-x--|
-0-7-0-6-0-5-0-3--3-5-3-0-|-0-2---0-2---x-x-x-x-|--0-2-2-0-2---0---0-2-2-0-2---x-x-x--|

-----------------------------------------------------------------------------------------|
-------------3------------------------3------------------------3-----------------------3-|
-4-------2---2-----2--4---4-------2---2------2--4---4-------2--2----2-4----4-------2---2-|
-4-------2---0-----2--4---4-------2---0------2--4---4-------2--0----2-4----4-------2---0-|
-2-------0---0-----0--2---2-------0---0------0--2---2-------0--0----0-2----2-------0---0-|
-----------------------------------------------------------------------------------------|
  I know you want what's on my mind I know you like what's on my mind I know it eats you up inside,
  I know you know...

-0-0-0-0-0-0-0-0-0-0-0-0-0-0-0--0--0--0--0--0--0--0--0--0--0--0--0--0--0--0-|
-3-3-3-5-5-5-7-7-7-9-9-9-9-9-9-11-11-11-11-11-11-11-11-11-11-11-11-11-11-11-|
-3-3-3-5-5-5-7-7-7-9-9-9-9-9-9-11-11-11-11-11-11-11-11-11-11-11-11-11-11-11-|
----------------------------------------------------------------------------|
----------------------------------------------------------------------------|
----------------------------------------------------------------------------|
[ Tab from: http://www.guitartabs.cc/tabs/s/stone_temple_pilots/sex_type_thing_tab_ver_4.html ]
-0-0-0-0-0-0-0-0-0-0-0-0-0-0-0--0--0--0--0--0--0--0--0--0--0--0--0--0--0--0-|
-3-3-3-5-5-5-7-7-7-9-9-9-9-9-9-11-11-11-11-11-11-11-11-11-11-11-11-11-11-11-|
-3-3-3-5-5-5-7-7-7-9-9-9-9-9-9-11-11-11-11-11-11-11-11-11-11-11-11-11-11-11-|
----------------------------------------------------------------------------|
----------------------------------------------------------------------------|
----------------------------------------------------------------------------|

---------------------|-------------------------------------|
---------------------|-------------------------------------|
---------------------|.-----------------------------------.|
-4-4---4-4---x-x-x-x-|.-4-4-4-4-4---4---4-4-4-4-4---x-x-x-.|
-4-4---4-4---x-x-x-x-|--4-4-4-4-4---4---4-4-4-4-4---x-x-x--|
-0-2---0-2---x-x-x-x-|--0-2-2-0-2---0---0-2-2-0-2---x-x-x--|

-----------------------------------------------------------------------------------------------|
-------------3------------------------3-----------------------3------------------------------3-|
-4-------2---2-----2--4---4-------2---2-----2--4---4-------2--2-----------2-4----4-------2---2-|
-4-------2---0-----2--4---4-------2---0-----2--4---4-------2--0-----------2-4----4-------2---0-|
-2-------0---0-----0--2---2-------0---0-----0--2---2-------0--0-----------0-2----2-------0---0-|
-----------------------------------------------------------------------------------------------|
  I know you want what's on my mind I know you like what's on my mind I know it eats you up inside,
  I know you know...

-----------------------------------------------------------------------------------------------|
-------------3------------------------3-----------------------3------------------------------3-|
-4-------2---2-----2--4---4-------2---2-----2--4---4-------2--2-----------2-4----4-------2---2-|
-4-------2---0-----2--4---4-------2---0-----2--4---4-------2--0-----------2-4----4-------2---0-|
-2-------0---0-----0--2---2-------0---0-----0--2---2-------0--0-----------0-2----2-------0---0-|
-----------------------------------------------------------------------------------------------|
  I know you want what's on my mind I know you like what's on my mind I know it eats you up inside,
  I know you know...

-0-0-0-0-0-0-0-0-0-0-0-0-0-0-0--0--0--0--0--0--0--0--0--0--0--0--0--0--0--0-|
-3-3-3-5-5-5-7-7-7-9-9-9-9-9-9-11-11-11-11-11-11-11-11-11-11-11-11-11-11-11-|
-3-3-3-5-5-5-7-7-7-9-9-9-9-9-9-11-11-11-11-11-11-11-11-11-11-11-11-11-11-11-|
----------------------------------------------------------------------------|
----------------------------------------------------------------------------|
----------------------------------------------------------------------------|

-0-0-0-0-0-0-0-0-0-0-0-0-0-0-0--0--0--0--0--0--0--0--0--0--0--0--0--0--0--0-|
-3-3-3-5-5-5-7-7-7-9-9-9-9-9-9-11-11-11-11-11-11-11-11-11-11-11-11-11-11-11-|
-3-3-3-5-5-5-7-7-7-9-9-9-9-9-9-11-11-11-11-11-11-11-11-11-11-11-11-11-11-11-|
----------------------------------------------------------------------------|
----------------------------------------------------------------------------|
----------------------------------------------------------------------------|

--------------------------|--------------------------|--------------------------|
--------------------------|--------------------------|--------------------------|
--------------------------|--------------------------|--------------------------|
--------------------------|--------------------------|--------------------------|
---7---7---7---7--7-7-7---|---7---7---7---7--7-7-7---|---7---7---7---7--7-7-7---|
-0-7-0-6-0-5-0-3--3-5-3-0-|-0-7-0-6-0-5-0-3--3-5-3-0-|-0-7-0-6-0-5-0-3--3-5-3-0-|

--------------------------|--------------------------|--------------------------|
--------------------------|--------------------------|--------------------------|
--------------------------|--------------------------|--------------------------|
--------------------------|--------------------------|--------------------------|
---7---7---7---7--7-7-7---|---7---7---7---7--7-7-7---|---7---7---7---7--7-7-7---|
-0-7-0-6-0-5-0-3--3-5-3-0-|-0-7-0-6-0-5-0-3--3-5-3-0-|-0-7-0-6-0-5-0-3--3-5-3-0-|

--------------------------|--------------------------|--------------------------|
--------------------------|--------------------------|--------------------------|
--------------------------|--------------------------|--------------------------|
--------------------------|--------------------------|--------------------------|
---7---7---7---7--7-7-7---|---7---7---7---7--7-7-7---|---7---7---7---7--7-7-7---|
-0-7-0-6-0-5-0-3--3-5-3-0-|-0-7-0-6-0-5-0-3--3-5-3-0-|-0-7-0-6-0-5-0-3--3-5-3-0-|

--------------------------|--------------------------|--------------------------|
--------------------------|--------------------------|--------------------------|
--------------------------|--------------------------|--------------------------|
--------------------------|--------------------------|--------------------------|
---7---7---7---7--7-7-7---|---7---7---7---7--7-7-7---|---7---7---7---7--7-7-7---|
-0-7-0-6-0-5-0-3--3-5-3-0-|-0-7-0-6-0-5-0-3--3-5-3-0-|-0-7-0-6-0-5-0-3--3-5-3-0-|
Comments