Stone Temple Pilots - Sex Type Thing Chords & Tabs

 

Sex Type Thing Chords & Tabs

Stone Temple Pilots Chords & Tabs

Version: 2 Type: Bass Tab 1 rating
1 star 2 stars 3 stars 4 stars 5 stars
comments

Sex Type Thing Bass Tab

Stone Temple Pilots - Sex Type Thing

Standard Tuning


...I honestly am not sure if this is the way Rob played it, but I've looked
at several tabs on the net in various places, and listened to the song many
times.  The only thing I take any credit for is the chorus, which I think
is good, after many listens to this song.  Everything else is from other
tabs I found on the net, it is not copied out of a book or anything.

Questions, comments, corrections, etc...andy719@hotmail.com


Main Riff:

|--------------------------------|
|--------------------------------|
|--------------------------------|
|--0-7-7-0-6--0-5--0-3--3-5-3-0--|

__________________________________________________________________________

Verse Riff:
[ Tab from: http://www.guitartabs.cc/tabs/s/stone_temple_pilots/sex_type_thing_btab_ver_2.html ]
|----------------------------------------------------------|
|----------------------------------------------------------|
|----------------------------------------------------------|
|--0--2--0--2-----0-2-2-0-2-----0---2-2-0-2-----0-2-2-0-2--|

__________________________________________________________________________

Chorus Riff:

|-----------------------------------------------------------------|
|-----------------------------------------------------------------|
|--2-------5-------2-------5-------2-------5-------2-------5---5--|
|------5p3-----2h5-----5p3-----2h5-----5p3-----2h5-----5p3--------|

__________________________________________________________________________

Bridge Riff:

|-----------------------------------------------------------------------|
|-----------------------------------------------------------------------|
|--7-7-7--5-5-5-------------------------------0h5-7----7----0h5-7----7--|
|----------------7-7-7--6-6-6--5-5--3-3--0--0--------0----0--------0----|
Comments