Stone Temple Pilots - Sex Type Thing Chords & Tabs

 

Sex Type Thing Chords & Tabs

Stone Temple Pilots Chords & Tabs

Version: 1 Type: Bass Tab 2 ratings
1 star 2 stars 3 stars 4 stars 5 stars
comments

Sex Type Thing Bass Tab

"Sex Type Thing"
Stone Temple Pilots - Core

bass tab
transcribed by Joe M.  cuatro01@att.net

MAIN RIFF (repeat)
G:-----------------------------------------
D:-----------------------------------------
A:-----------------------------------------
E:--0--7-7--0--6--0--5--0--3---3--5--3--0--

END OF MAIN RIFF
G:--------------------------------------
D:--------------------------------------
A:--------------------------------------
E:--0--7-7--0--6--0--5--0--3---3--5--3--

VERSE 1 (then go back to main riff)
G:----------------------------------------------------------
D:----------------------------------------------------------
A:----------------------------------------------------------
E:--0--2--0--2-----0-2-2-0-2-----0---2-2-0-2-----0-2-2-0-2--

G:----------------------------------------------------------------
D:----------------------------------------------------------------
A:----------------------------------------------------------------
E:--0---2-2-0-2-----0-2-2-0-2-----0---2-2-0-2-----0-2-2-0-2--12\--

VERSE 2 (then go to the chorus)
G:----------------------------------------------------------
D:----------------------------------------------------------
A:----------------------------------------------------------
E:--0--2--0--2-----0-2-2-0-2-----0---2-2-0-2-----0-2-2-0-2--
[ Tab from: http://www.guitartabs.cc/tabs/s/stone_temple_pilots/sex_type_thing_btab.html ]
G:---------------------------------------------------------------
D:---------------------------------------------------------------
A:------------------------------------------------------------2--
E:--0---2-2-0-2-----0-2-2-0-2-----0---2-2-0-2-----0-2-2-0-2------

VERSE 3 (then go to chorus)
G:----------------------------------------------------------
D:----------------------------------------------------------
A:----------------------------------------------------------
E:--0--2--0--2-----0-2-2-0-2-----0---2-2-0-2-----0-2-2-0-2--

G:-----------------------------------------------------------------
D:-----------------------------------------------------------------
A:------------------------------------------------------------0-2--
E:--0---2-2-0-2-----0-2-2-0-2-----0---2-2-0-2-----0-2-2-0-2--------

CHORUS ("I know you want what's on my mind...")
G:--------------------------------------------------------
D:--------------------------------------------------------
A:--2--0----0--2----2--0----0--2----2--0----0--2----2--0--
E:--------------------------------------------------------

BRIDGE - repeat twice
G:-------------------------------------------
D:-------------------------------------------
A:--5-5-5--7-7-7--9-9-9--11-11-11--13-13-13--
E:-------------------------------------------

G:--------------------------------------------------------
D:--------------------------------------------------------
A:-----12-12-----12-12-----12-12-----12-12----12----12--
E:--0---------0---------0---------0---------0-----0------

OUTRO
G:-----------------------------------------------------
D:-----------------------------------------------------
A:-----------------------------------------------------
E:--0--7-7--0--6--0--5--0--3---3--5--3--0--0-0-0-0-0---


Comments