Stone Temple Pilots - Plush Chords & Tabs

 

Plush Chords & Tabs

Stone Temple Pilots Chords & Tabs

Version: 4 Type: Tab 0 ratings
1 star 2 stars 3 stars 4 stars 5 stars
comments

Plush Tab

e-----------------------------------------------------
B-----------------------------------------------------
G----------------------------------------------------- 
D-----------------------------------------------------
A-3-------3-3-x-3--3-3-x-3----3-------3-3-x-3--3-3-x-3
E-0h1h2/3-3-3-x-2--1-1-x-0----0h1h2/3-3-3-x-2--1-1-x-0
[ Tab from: http://www.guitartabs.cc/tabs/s/stone_temple_pilots/plush_tab_ver_4.html ]
This is another way I learned it.

e-3-------3-3--3--3-3-3----3-------3-3--3--3-3--3
B-0h1h2/3-3-3--2--1-1-0----0h1h2/3-3-3--2--1-1--0
G---------0-0--3--2-2-0------------0-0--3--2-2--0
D------------------------------------------------
A------------------------------------------------
E------------------------------------------------

4:20 FOR LIFE!!!!!

Ricky St. Louis- Tilbury
Comments