Stone Temple Pilots - Plush Chords & Tabs

 

Plush Chords & Tabs

Stone Temple Pilots Chords & Tabs

Version: 3 Type: Tab 0 ratings
1 star 2 stars 3 stars 4 stars 5 stars
comments

Plush Tab

   
I've seen most of these right..but just a bit off cuz I learned from guitar world 
where Dean DeLeo showed how to play it...so i'll post it for everyones use.

Standard Tuning:Eadgbe
  (Intro)
   G5       G(B)   Am7(C6)  G           
e--3--3-----3---I--3--3-----3----------3--3--3--
b--3--3-----2---I--1--1-----0----------0--1--2--
g--0--0-----3---I--2--2-----0----------0--0--0--
d---------------I-------------------------------
a---------------I-------------------------------
E---------------I-------------------------------

  (Verse)
   G            D/F#
e--3--3-----------3--3-----------
b--3--3--x--x-----2--2--x--x-----
g--0--0--x--x--2--3--3--x--x-----
d--0--0--x--x--0--0--0--x--x--2--
a--2--2--x--x-----------x--x--3--
E--3--3--------2--2--2--------1--
               (thumb)
   F              C          Emaj7
e--1--1-----------0--0-----------
b--1--1--x--x-----1--1--x--x--3--
g--2--2--x--x--0--0--0--x--x--3--
d--3--3--x--x--3--3--3--x--x--5--
a--3--3--x--x--2--2--2--x--x--6--
E--1--1--------------------------
   
                              F
e--------------------------------
b--3--3--x--x--3--3---3---x------
g--3--3--x--x--3--3---3---x---2--
d--5--5--x--x--5--5---5---x---3--
a--6--6--x--x--6--6---6---x---3--
E-----------------------------1--
[ Tab from: http://www.guitartabs.cc/tabs/s/stone_temple_pilots/plush_tab_ver_3.html ]
(Pre-Chorus)
 Dsus2     Cadd2  G6/B
e--0-------0---0--0----0--0----0--
b--3-------3---3--3----3--3----3--
g--2-------0---0--0----0--0----0--
d--0------------------------------
a----------3---3--2----2--3----3--
E---------------------------------

(Chorus)Guitar 1
   G5                      F5
e-------------------------------------
b-------------------------------------
g-------------------------------x-----
d-------------------------------x-----
a--5--5--5--5--5----5--3--3--3--x--3--
E--3--3--3--3--3----3--1--1--1-----1--

   C/E                E5        D5
e-------------------------------------
b-------------------------------------
g-------------------------------------
d-------------------7-8-8-8-8--7-7-7--
a--3--3--3--3--3----5s6-6-6-6--5-5-5--
E--0--0--0--0--0----------------------

(Chorus) Guitar 2

e-------------------------------------
b-------------------------------------
g---------7--------7------7-----------
d-----7s9---9----9------9---9---5--7--
a--10---------10------8---------8-----
E-------------------------------------

e-------------------------------------
b-------------------------------------
g------5---5-------------5s7--------5-
d----5---5---5---------5------------5-
a--7-----------7-----6--------------5-
E-------------------------------------

Alright there it is..remember I got it all from guitar world so it should be perfect..
It's a great song to learn from..but hope it helps out.
Comments