Stone Temple Pilots - Plush Chords & Tabs

 

Plush Chords & Tabs

Stone Temple Pilots Chords & Tabs

Version: 1 Type: Bass Tab 0 ratings
1 star 2 stars 3 stars 4 stars 5 stars
comments

Plush Bass Tab

"Plush"
Stone Temple Pilots - Core

bass tab
transcribed by Joe M. (cuatro01@att.net)

INTRO/MAIN RIFF
G:------------------------------------------------------------
D:------------------------------------------------------------
A:--------1---0-1-2-3--3---------2-3-4--5------1---0-1-2-3--3-
E:-3--3--------------------3--3------------3------------------

G:-----------------------------------------------------
D:-----------------------------------------------------
A:-------2-3-4--5------1---0-1-2-3--3---------2-3-4--5-
E:-3--3------------3--------------------3--3-----------

G:------------------------
D:------------------------
A:-----1---0-1-2-3--3-----
E:-3--------------------3-


VERSE
G:--------------------------------------------------------------
D:---------5-4------2-3--3---3-2------0-1--1-----1--1-1/(3)-3-3-
A:--------------5-----------------3------------1----------------
E:--3--3--------------------------------------------------------

G:--------------------------------------------------------------
D:---------5-4------2-3--3---3-2------0-1--1-----1--1-1/(3)-3-3-
A:--------------5-----------------3------------1----------------
E:--3--3--------------------------------------------------------

G:-----------------------------------------------------
D:-------------------3-4-------------------------------
A:-5--5-5-3--2--3--5------5--5-5-3--3-2--5-----2-2-3-4-
E:-----------------------------------------3-5---------
[ Tab from: http://www.guitartabs.cc/tabs/s/stone_temple_pilots/plush_btab.html ]
G:----------------------------------------------
D:-------------------3-4------------------------
A:-5--5-5-3--2--3--5------5--5-5-3--2--3--5-3h5-
E:----------------------------------------------


CHORUS
G:----------------------------------------------------------
D:----------------------10-8--7-----------------------------
A:-6-6-----6--6----6-10----------8-----8-8----8-10-8-7-6--6-
E:-------6------6--------------------8------8---------------

G:----------------------------------------------------
D:----------------10-8--7-----------------------------
A:---6--6----6-10----------8-----8-8----8-10-8-8-6--6-
E:-6------6--------------------8------8---------------

G:---------------------------------------------------
D:----------------10-8--7----------------------------
A:---6--6----6-10----------8-----8-8----8-8--7--6--6-
E:-6------6--------------------8------8--------------

G:---------------------------------------------
D:----------------10-8--7----------------------
A:---6--6----6-10----------8-----8-8----8-8----
E:-6------6--------------------8------8-----8\-


BRIDGE
G:-------------------------------------------------------
D:-------------------------------------------------------
A:--------------------------------------5--6-6-6-6-5-5-5-
E:-3-3-3-3-3--3--1-1-1-1--1--0-0-0-0-0-------------------

G:-------------------------------------------------------
D:-------------------------------------------------------
A:--------------------------------------5--6-6-6-6-5-5-5-
E:-3-3-3-3-3--3--1-1-1-1--1--0-0-0-0-0-------------------

G:-----------------------------------------------
D:-----------------------------------------------
A:--------------------------------------5--6---5-
E:-3-3-3-3-3--3--1-1-1-1--1--0-0-0-0-0-----------

Comments