Stone Temple Pilots - Lady Picture Show Chords & Tabs

 

Lady Picture Show Chords & Tabs

Stone Temple Pilots Chords & Tabs

Version: 1 Type: Bass Tab 0 ratings
1 star 2 stars 3 stars 4 stars 5 stars
comments

Lady Picture Show Bass Tab

Lady Picture Show
Stone Temple Pilots - Tiny Music... Songs From the Vatican Gift Shop

bass tab
transcribed by Joe M.  cuatro01@att.net

INTRO:
G:--------------------------------------------------------------------------
D:--------------------------------------------------------------------------
A:--7---6---4--2-----------------7---6---6--7---5--5--5--5--5--5-------7----
E:------------------5---4---2 /------------------------------------7-9---9--

VERSE:
G:----------------------------------------------------------------
D:----------------------------------------------------------------
A:--7---6---4--2----------------7---6---4--2-----------------7----
E:------------------5---4---2 /------------------5---4---7-9---9--

G:------------------------------------------------------------------
D:------------------------------------------------------------------
A--7---6---4--2-----------------7---6---4--2------------------------
E:------------------5---4---2 /------------------5---4---4--2--2 /--

CHORUS:
"she doesn't know her name"
G:-----------------------------------------------------
D:-----------------------------------------------------
A:----------------------8-11---9--9--9--9--9--9--9---9-
E:--9--9--9--9--9--9--9------9---------------------9---

"she doesn't know her face"
G:---------------------------------------------------
D:---------------------------------------------------
A:----------------------6-9---7--7--7--7--6--6--6--6-
E:--7--7--7--7--7--7--7-----7------------------------

"she doesn't know her name..."
G:-----------------------------------------------------------------------------------
D:-----------------------------------------------------------------------------------
A:------------------------8-11---9--9--9--9--9--9--9---9------------------------7----
E:--9-9--9--9--9--9--9--9------9---------------------9----7--7--7--7--7--7--7-9---9--
[ Tab from: http://www.guitartabs.cc/tabs/s/stone_temple_pilots/lady_picture_show_btab.html ]
BRIDGE (BEFORE VERSE 2):
G:--------------------------------------------------------------------------
D:--------------------------------------------------------------------------
A:--7---6---4--2-----------------7---6---6--7---5--5--5--5--5--5-------7----
E:------------------5---4---2 /------------------------------------7-9---9--

BRIDGE (BEFORE SOLO):
G:----------------------------------------------------------------
D:----------------------------------------------------------------
A:--7---6---4--2----------------7---6---4--2------------------7---
E:------------------5---4---2-/------------------5---4--4-7-9---9-

G:---------------------------------------------------------------------
D:---------------------------------------------------------------------
A:--7---6---4--2----------------7---6---6--7---5--5--5--5--5--5--5--7--
E:------------------5---4---2 /----------------------------------------

GUITAR SOLO:
G:-----------------------------------------------------------------------------------
D:--------7--------------7------------7--------------7-----------7--------------7----
A:-------------------7-9---9---------------------7-9---9--------------------7-9---9--
E:--5--5-----5----5-------------5--5-----5----5------------5--5-----5----5-----------

                                           "she doesn't know her name"
G:-------------------------------------------------------------------
D:--------7--------------7-------------------------------------------
A:-------------------7-9---9--7---7---/(4)--4--4--4--4--4--4--4--4---
E:--5--5-----5----5---------------------------------------------4--4-

                             "she doesn't know her face"
G:-----------------------------------------------------
D:-----------------------------------------------------
A:-----------------------------------------------------
E:--2--2--2--2--2--2--2-4--5--5--5--5--5--5--5-7---7---

OUTRO (AFTER LAST CHORUS):
G:----------------------------------------------------------------
D:----------------------------------------------------------------
A:--7---6---4--2----------------7---6---4--2------------------7---
E:------------------5---4---2-/------------------5---4--4-7-9---9-

G:--------------------------------------------------
D:--------------------------------------------------
A:--7---6---4--2----------------7---6---6--7---5----
E:------------------5---4---2-/---------------------

Comments