Stone Temple Pilots - Interstate Love Song Chords & Tabs

 

Interstate Love Song Chords & Tabs

Stone Temple Pilots Chords & Tabs

Version: 6 Type: Tab 0 ratings
1 star 2 stars 3 stars 4 stars 5 stars
comments

Interstate Love Song Tab

   
#---------------------PLEASE NOTE------------------------#
#This file is the author's own work and represents their #
#nterpretation of the song. You may only use this file   #
#for private study, scholarship, or research.            #
#--------------------------------------------------------#


Author/Artist: Stone Temple Pilots
Title: Interstate Love Song
Album: Purple
Transcribed by: Jeremy Pearson
Email: jerpear@nb.sympatico.ca

I have yet to see this tabbed correctly, so here is my 
version. I believe this is pretty much 100%.

Intro

 E         Asus2    G#sus4  G#           A                E
 
-0--0-0-0--0--0-0-0-|4--4---4-----4-4-4-|5-5-5-5-5-5-5-0--0|
-0--0-0-0--0--0-0-0-|4--4---4-----4-4-4-|5-5-5-5-5-5-5-0--0|
-1--1-1-1--2--2-2-2-|6--6-*-5-----5-5-5-|6-6-6-6-6-6-6-0--1|
-2--2-2-2--2--2-2-2-|6--6-*-6--6--6-6-6-|7-7-7-7-7-7-7----2|
-2--2-2-2--0--0-0-0-|6--6-*-6--6--6-6-6-|7-7-7-7-7-7-7----2|
-0--0-0-0--0--0-0-0-|4--4-*-4--4--4-4-4-|5-5-5-5-5-5-5----0|
                                                                              
                     E                     
[ Tab from: http://www.guitartabs.cc/tabs/s/stone_temple_pilots/interstate_love_song_tab_ver_6.html ]
-0--0--0-0-0-------0|0-0----0-----0-0-0-|0-0-0---0--0-0-0-0|
-2b-2b-0-0-------0--|0-0--*-0-----0-0-0-|0-0-0-*-0--0-0-0-0|
---------2---1h2----|1-1--*-1-----1-1-1-|1-1-2-*-1--1-1-1-1|
--------------------|2-2--*-2---2-2-2-2-|2-2-2-*-2--2-2-2-2|
--------------------|2-2--*-2---2-2-2-2-|2-2-2-*-2--2-2-2-2|
--------------------|0-0----0---0-0-0-0-|0-0-0---0--0-0-0-0|
 
Verses  

 C#m                  G#/B#               C#m

-4--4--4-4-4--4-4-4-|-3--3--3-3-3--3-3--|-4--4--4-4-4--4-4-|
-5--5--5-5-5--5-5-5-|-4--4--4-4-4--4-4--|-5--5--5-5-5--5-5-|
-6--6--6-6-6--6-6-6-|-5--5--5-5-5--5-5--|-6--6--6-6-6--6-6-|
-6--6--6-6-6--------|-6--6--6-6-6--6-6--|-6--6--6-6-6----6-|
-4--4--4-4-4--------|-3--3--3-3-3--3-3--|-4--4--4-4-4------|
--------------------|-------------------|------------------|
 Waitin'...

 A                E

|5--5--5-5-5--5-|-0-0-0---0-0-0-0-0--|-0-0-0---0--0-0-0--|
|5--5--5-5-5--5-|-0-0-0---0-0-0-0-0--|-0-0-0---0--0-0-0--|
|6--6--6-6-6--6-|-1-1-2-*-1-1-1-1-1--|-1-1-2-*-1--1-1-1--|
|7--7--7-7-7--7-|-2-2-2-*-2-2-2-2-2--|-2-2-2-*-2--2-2-2--|
|7--7--7-7-7----|-2-2-2-*-2-2-2-2-2--|-2-2-2-*-2--2-2-2--|
|5--5--5-5-5----|-0-0-0---0-0-0-0-0--|-0-0-0---0--0-0-0--|



Chorus
  
  C#m           E
Leavin' on a Southern train
         Asus2       G#sus4  G#
Only yesterday you lied
    A                 E
Promises of what I seemed to be
       Asus2             G#sus4  G#
Only watched the time go by
 A                         E
All of these things you said to me
Comments