Stone Temple Pilots - Interstate Love Song Chords & Tabs

 

Interstate Love Song Chords & Tabs

Stone Temple Pilots Chords & Tabs

Version: 4 Type: Tab 0 ratings
1 star 2 stars 3 stars 4 stars 5 stars
comments

Interstate Love Song Tab

#----------------------------------PLEASE NOTE---------------------------------#
#This file is the author's own work and represents their interpretation of the #
#song. You may only use this file for private study, scholarship, or research. #
#------------------------------------------------------------------------------#
#

Date: 05.18.2001
From: Jóa Gísla 
Subject: interstate lovesong (acoustic) 100% correct

Stone Temple Pilots
Interstate Love Song

I´v seen this song postet so often the wrong way that I felt obligatet to post
the right version because this is one of the best song ever.
And please don´t tell me I am wrong because I know I´m wright, you´r wrong

Verse) cords used in right order (don´t quite know their names)

E--------4----------*------------------*---------2----------*
B--------5----------*--------4---------*---------2----------*
G--------6----------*--------5---------*---------4----------*
D--------6----------*--------6---------*---------4----------*
A--------4----------*--------3---------*---------2----------*
E-------------------*------------------*--------------------*


E--------------------*--------0---------*
B---------2----------*--------0---------*
G---------3----------*--------2---------*
D---------4----------*--------2---------*
A---------1----------*--------0---------*
E--------------------*--------0---------*

then comes the brake just E and asus2 for few times (you can figure that out)

E-------0--------*---------0----------*
B-------0--------*---------0----------*
G-------1--------*---------2----------*
D-------2--------*---------2----------*
A-------2--------*---------0----------*
E-------0--------*---------0----------*
[ Tab from: http://www.guitartabs.cc/tabs/s/stone_temple_pilots/interstate_love_song_tab_ver_4.html ]
the guitar part wich comes after the brake (atleast in the acoustic version)
E---------0-0--------*--------0---------*-------0------0------*
B---------2d3--------*--------0---------*------------0--------* (into brake)
G--------------------*------------------*------2--1d2---------*

Chorus) chords used in right order (don´t know names)
                      (or E if you can´t)
E--------4-----------*--------0---------*----------5---------*
B--------5-----------*--------0---------*----------5---------*
G--------6-----------*--------4---------*----------6---------*
D--------6-----------*--------6---------*----------7---------*
A--------4-----------*--------7---------*----------7---------*
E--------------------*--------7---------*----------5---------*

E--------4----------*---------4---------*----------5----------*
B--------4----------*---------4---------*----------5----------*
G--------6----------*---------5---------*----------6----------*
D--------6----------*---------6---------*----------7----------*
A--------4----------*---------6---------*----------7----------*
E-------------------*---------4---------*----------5----------*

or you can use E if
you can´t do this one
E--------0-----------*----------5---------*----------4---------*
B--------0-----------*----------5---------*----------4---------*
G--------4-----------*----------6---------*----------6---------*
D--------6-----------*----------7---------*----------6---------*
A--------7-----------*----------7---------*----------4---------*
E--------7-----------*----------5---------*--------------------*

E---------4----------*----------5---------*----------0---------*
B---------4----------*----------5---------*----------0---------*
G---------5----------*----------6---------*----------1---------*
D---------6----------*----------7---------*----------2---------*
A---------6----------*----------7---------*----------2---------*
E---------4----------*----------5---------*----------0---------*

and from the E you go into the brake.
Comments