Stone Temple Pilots - Interstate Love Song Chords & Tabs

 

Interstate Love Song Chords & Tabs

Stone Temple Pilots Chords & Tabs

Version: 2 Type: Tab 0 ratings
1 star 2 stars 3 stars 4 stars 5 stars
comments

Interstate Love Song Tab

#----------------------------------PLEASE NOTE--------------------------------#
#This file is the author's own work and represents their interpretation of the#
#song. You may only use this file for private study, scholarship, or research.#
#-----------------------------------------------------------------------------#
#-- File created with Instab - http://www.pconline.com/~smcarey/instab.html --#
#-----------------------------------------------------------------------------#

Author/Artist: Stone Temple Pilots
Title: Interstate Love Song
Album: Purple
Transcribed by: Caleb Jaquith
Email: TheJebinator@hotmail.com


THE INTRO...(for solo acoustic, sing the lead...)

-|-4--------0--------0--------4--------5--------0-----------------------------
-|-5--------0--------0--------4--------5--------0-----------------------------
-|-4--------1--------2--------5--------6--------1-----------------------------
-|-6--------2--------2--------6--------7--------2-----------------------------
-|-7--------2--------0--------6--------7--------2-----------------------------
-|-0--------0--------0--------4--------6--------0-----------------------------
 

THE MAIN RIFF                                                                

-|-0--0--0-----0----------0---0----0----0--0----0--0--0-0--0---0--0-0---------
-|-3--2--0--0---------0-------0----0----0--0----0--0--0-0--0---0--0-0---------
-|----------2----1h2----------1----1----1--1----1--1--2-2--1---1--1-1---------
-|----------------------------2----2----2--2----2--2--2-2--2---2--2-2---------
-|----------------------------2----2----2--2----2--2-------2---2--2-2---------
-|----------------------------0----0----0--0----0--0-------0---0--0-0---------
                     (i use both up and down strokes here...play around)      

-|-0--0--0-----0----------0---0----0---0---0---0-0--0---0---0---0-------------
-|-3--2--0--0---------0-------0----0---0---0---0-0--0---0---0---0-------------
-|----------2----1h2----------1----1---1---1---1-1--1---1---2---1-------------
-|----------------------------2----2---2---2---2-2--2---2---2---2-------------
-|----------------------------2----2---2---2---2-2--2---2---0---2-------------
-|----------------------------0----0---0---0---0-0--0---0---0---2-------------
 

THE VERSES (LISTEN FOR THE STRUM)                                            
[ Tab from: http://www.guitartabs.cc/tabs/s/stone_temple_pilots/interstate_love_song_tab_ver_2.html ]
-|---------------------------------0----|---0--0--0-0--0--0--0-0--0--0--0-----
-|---------------------------------0----|---0--0--0-0--0--0--0-0--0--0--0-----
-|--6------5--------4-------3------2----|---1--1--1-1--1--1--1-1--1--2--1-----
-|--6------5--------4-------3------2----|---2--2--2-2--2--2--2-2--2--2--2-----
-|--4------3--------2-------1------0----|---2--2--2-2--2--2--2-2--2--0--2-----
-|--------------------------------------|---0--0--0-0--0--0--0-0--0-----------
 

THE CHORUS                                                                   

-|--4-----------0---------0-------4-------5-------0------0-----4-----5----0---
-|--5-----------0---------0-------4-------5-------0------0-----4-----5----0---
-|--4-----------1---------2-------5-------6-------1------2-----5-----7----1---
-|--6-----------2---------2-------6-------7-------2------2-----6-----6----2---
-|--7-----------2---------0-------6-------7-------2------0-----6-----6----2---
-|--0-----------0---------0-------4-------5-------0------0-----4-----5----0---
  leavin'...southern...(you get the idea)      


========================================================================================================


Song: Interstate Love Song
Artist: Stone Temple Pilots
Album: Purple
Submitted and tabbed by Brandon Williams 
e-mail: Bwillia1074@cs.com

I got this out of a magazine where Dean shows how to play most of the song.  I am pretty sure that even the riffs that weren't in the magazine are correct, also.

Intro Riff:
It wasn't in the magazine but I think it's correct
|--------------------------------0-|
|-----------------------4--5-4---0-|
|-\6--4\6/4-----------5--------6-1-|
|------------6/4--2\4------------2-|
|--------------------------------2-|
|--------------------------------0-|

Main Riff:
|-0-----0---0-------0-|
|-2b3r2-0-0-------0---|
|---------2---1h2-----|
|---------------------|
|---------------------|
|---------------------|

Riff 2:
|-0--0----0-----0-0-0-0--0--0--0-0-0-|
|-0--0-X--0-----0-0-0-0--0--0--0-0-0-|
|-1--1-X--1-----1-1-1-1--1--2--4-4-4-|
|-2--2-X--2-----2-2-2-2--2--4--6-6-6-|
|-2--2-X--2-----2-2-2-2--2--4--7-7-7-|
|-0--0----0---0-0-0-0-0--0--0--0-0-0-|

Verse Riff:
|-4-4-----4----4-4-4---------------------------------------------------------------------0-|
|-5-5-X-X-5--X-5-5-5-X--4-4-X-X-4--X-4-4-4-X--2-2-X-X-2--X-2-2-2-X--2-2-X-X-2--X-2-2-2-X-0-|
|-4-4-X-X-4--X-4-4-4-X--5-5-X-X-5--X-5-5-5-X--1-1-X-X-1--X-1-1-1-X--1-1-X-X-1--X-1-1-1-X-2-|
|-6-6-X-X-6--X-6-6-6-X--6-6-X-X-6--X-6-6-6-X--2-2-X-X-2--X-2-2-2-X--2-2-X-X-2--X-2-2-2-X-2-|
|-4-4-X-X-4--X-4-4-4-X--3-3-X-X-3--X-3-3-3-X--3-3-X-X-3--X-3-3-3-X--1-1-X-X-1--X-1-1-1-X-0-|
|------------------------------------------------------------------------------------------|
Waiting               on a Sunday afternoon for what I read between the lines--           your lies


Chorus chords:  This part wasn't in the magazine, but I'm almost positive it's correct.  You have to figure out the strumming yourself.
Comments