Stone Temple Pilots - Interstate Love Song Chords & Tabs

 

Interstate Love Song Chords & Tabs

Stone Temple Pilots Chords & Tabs

Version: 10 Type: Tab 0 ratings
1 star 2 stars 3 stars 4 stars 5 stars
comments

Interstate Love Song Tab

Interstate Love Song
Stone Temple Pilots

tabbed by Dr. Linus Rebar

There are a lot of tabs for this song on the internet
that are correct with the exception of one part here
or there. Most of them are also incomplete, or don't
include strumming patterns, so this is probably the
best tab of this available. Enjoy.


Guitar 1 (intro)
e|------------------------------------------------------|
B|----------------------------------------------4---5-4-|
G|-4/6------4-/6/4---------------------------5----------|
D|-----------------6--------------------6---------------|
A|------------------------7/9/7-----7-------------------|
E|------------------------------------------------------|

e|---------0--------------------------------------------|
B|---------0--------------------------------------------|
G|-4/6-----1--Let ring----------------------------------|
D|---------2--------------------------------------------|
A|---------2--------------------------------------------|
E|---------0--------------------------------------------|

Guitar 2 (intro)
e|-4-4-x-x-x-4-x-4--4-4-4-4--0-0-x-x-x-0-x-0--0-0-0-0---|
B|-5-5-x-x-x-5-x-5--5-5-5-5--0-0-x-x-x-0-x-0--0-0-0-0---|
G|-6-6-x-x-x-6-x-6--6-6-6-6--1-1-x-x-x-1-x-1--1-1-1-1---|
D|-6-6-x-x-x-6-x-6--6-6-6-6--2-2-x-x-x-2-x-2--2-2-2-2---|
A|-4-4-x-x-x-4-x-4--4-4-4-4--2-2-x-x-x-2-x-2--2-2-2-2---|
E|-----x-x-x---x-----------------x-x-x---x--------------|

e|-0-0-x-x-x-0-x-0--0-0-0-0--4-4-x-x-x-4-x-4--4-4-4-4---|
B|-2-2-x-x-x-2-x-2--2-2-2-2--4-4-x-x-x-4-x-4--4-4-4-4---|
G|-2-2-x-x-x-2-x-2--2-2-2-2--5-5-x-x-x-5-x-5--5-5-5-5---|
D|-2-2-x-x-x-2-x-2--2-2-2-2--6-6-x-x-x-6-x-6--6-6-6-6---|
A|-0-0-x-x-x-0-x-0--0-0-0-0--6-6-x-x-x-6-x-6--6-6-6-6---|
E|-----x-x-x-----------------4-4-x-x-x-4-x-4--4-4-4-4---|

e|-0-0-x-x-x-0-x-0--0-0-0-0---0-------------------------|
B|-2-2-x-x-x-2-x-2--2-2-2-2---0-------------------------|
G|-2-2-x-x-x-2-x-2--2-2-2-2---1--Let ring---------------|
D|-2-2-x-x-x-2-x-2--2-2-2-2---2-------------------------|
A|-0-0-x-x-x-0-x-0--0-0-0-0---2-------------------------|
E|-----x-x-x------------------0-------------------------|

Guitar 1 (pre-verse)
e|-0--0--0--0----------0--------------------------------|
B|-2-b3-b2--0--------0----------------------------------|
G|-------------2-1-2------1-1--2-2-1---------1-1--2-2-1-|
D|------------------------2-2--4-4-2---------2-2--4-4-2-|
A|------------------------2-2--4-4-2---------2-2--4-4-2-|
E|------------------------------------------------------|
[ Tab from: http://www.guitartabs.cc/tabs/s/stone_temple_pilots/interstate_love_song_tab_ver_10.html ]
Guitar 2 (verse)
e|-4-4-x-x-x-4-x-4--4-4-4-4--3-3-x-x-x-3-x-3--3-3-3-3---|
B|-5-5-x-x-x-5-x-5--5-5-5-5--4-4-x-x-x-4-x-4--4-4-4-4---|
G|-6-6-x-x-x-6-x-6--6-6-6-6--5-5-x-x-x-5-x-5--5-5-5-5---|
D|-6-6-x-x-x-6-x-6--6-6-6-6--6-6-x-x-x-6-x-6--6-6-6-6---|
A|-4-4-x-x-x-4-x-4--4-4-4-4--3-3-x-x-x-3-x-3--3-3-3-3---|
E|-----x-x-x---x-----------------x-x-x---x--------------|

e|-----x-x-x---x-----------------x-x-x---x--------------|
B|-2-2-x-x-x-2-x-2--2-2-2-2--2-2-x-x-x-2-x-2--2-2-2-2---|
G|-1-1-x-x-x-1-x-1--1-1-1-1--1-1-x-x-x-1-x-1--1-1-1-1---|
D|-3-3-x-x-x-3-x-3--3-3-3-3--2-2-x-x-x-2-x-2--2-2-2-2---|
A|-1-1-x-x-x-1-x-1--1-1-1-1--1-1-x-x-x-1-x-1--1-1-1-1---|
E|-----x-x-x---------------------x-x-x---x--------------|

e|-0----------------------------------------------------|
B|-2----------------------------------------------------|
G|-2--Let ring------------1-1--2-2-1---------1-1--2-2-1-|
D|-2----------------------2-2--4-4-2---------2-2--4-4-2-|
A|-0----------------------2-2--4-4-2---------2-2--4-4-2-|
E|------------------------------------------------------|

Guitar 2 (chorus)
e|-4--4--5--5--5--5--5--5--0--0--0--0--0--0--0--0-------|
B|-5--5--5--5--5--5--5--5--0--0--0--0--0--0--0--0-------|
G|-6--6--6--6--6--6--6--6--1--1--1--1--1--1--1--1-------|
D|-6--6--6--6--6--6--6--6--2--2--2--2--2--2--2--2-------|
A|-4--4--4--4--4--4--4--4--2--2--2--2--2--2--2--2-------|
E|------------------------------------------------------|

e|-0--0--0--0--0--0--0--0--4--4--4--4--4--4--4--4-------|
B|-2--2--2--2--2--2--2--2--4--4--4--4--4--4--4--4-------|
G|-2--2--2--2--2--2--2--2--5--5--5--5--5--5--5--5-------|
D|-2--2--2--2--2--2--2--2--6--6--6--6--6--6--6--6-------|
A|-0--0--0--0--0--0--0--0--6--6--6--6--6--6--6--6-------|
E|-------------------------4--4--4--4--4--4--4--4-------|

e|-0--0--0--0--0--0--0--0--0----------------------------|
B|-2--2--2--2--2--2--2--2--0----------------------------|
G|-2--2--2--2--2--2--2--2--1--Let ring------------------|
D|-2--2--2--2--2--2--2--2--2----------------------------|
A|-0--0--0--0--0--0--0--0--2----------------------------|
E|------------------------------------------------------|


Order:

Guitar 1 & Guitar 2 (intro)
Guitar 1 (pre-verse)
Guitar 2 (verse)
Guitar 2 (verse)
Guitar 2 (chorus)
Guitar 1 (pre-verse)
Guitar 2 (verse)
Guitar 2 (chorus)
Guitar 1 (pre-verse)


Also, if you have the time, look for my first tab, "Riding
into the Sunset". It's the music that plays in the background
as cowboys ride their horses in western movies. It's really
simple, but fun to play!
Comments