Stone Temple Pilots - Interstate Love Song Intro-solo Chords & Tabs

 

Interstate Love Song Intro-solo Chords & Tabs

Stone Temple Pilots Chords & Tabs

Version: 1 Type: Chords 1 rating
1 star 2 stars 3 stars 4 stars 5 stars
comments

Interstate Love Song Intro-solo Chords

   
#----------------------------------PLEASE NOTE---------------------------------#
#This file is the author's own work and represents their interpretation of the #
#song. You may only use this file for private study, scholarship, or research. #
#------------------------------------------------------------------------------#

interstate love song
(stone temple pilots)

intro chords
C#m       E        Asus2       Absus4 Ab     A        E
4         0        0           #      #      5        0
5         0        0           #      #      5        0
6         1        2           6      5      6        1
6         2        2           6      6      7        2
4         2        0           6      6      7        2
#         0        #           4      4      5        0
[ Tab from: http://www.guitartabs.cc/tabs/s/stone_temple_pilots/interstate_love_song_intro_solo_crd.html ]
Intro Solo
e ----------------------------------------------------------|-
b ----------------------------------------------------------|-
g ------------------------------------------8--8\9/8--------|-
d --\11~~--9-\11-9-----------------------10~---------11~~---|-
a ----------------\11~~---\9/7~~--9-9\11~-------------------|-
e ----------------------------------------------------------|-

then.......

 Riff
e --0----0--0--------------0--0-------0--------------0------|-
b --2s3--2--0----0-------0----0-------0--------------0------|-
g -------------2-----1h2------1---2---1------1---2---1------|-
d ----------------------------2---4---2------2---4---2------|-
a ----------------------------2---0---2------2---0---2------|-
e ----------------------------0-------0------0-------0------|-
   
verse chords
      
C#m    Cm7    Bmaj9  Bb7-5  Asus2    
#      #      #      #      0
5      4      2      2      0
6      3      1      1      2
6      5      3      2      2
4      3      2      1      0


thats basically it......
Comments