Stone Temple Pilots - Down Chords & Tabs

 

Down Chords & Tabs

Stone Temple Pilots Chords & Tabs

Version: 2 Type: Bass Tab 0 ratings
1 star 2 stars 3 stars 4 stars 5 stars
comments

Down Bass Tab

"Down"   
Stone Temple Pilots - No. 4

bass tab
transcribed by Joe M.  cuatro01@att.net

drop D tuning
INTRO:
G:----------------------------------------------------------
D:----------------------------------------------------------
A:----------------------------------------------------------
D:--3-0-0---0-3-0-0-----3-0-0---0-3-0-0-----3-0-0---0-3-0-0-

G:--------------------------------------------------------
D:--------------------------------------------------------
A:----------------------------------3---------------------
D:--3-0-0---0-3-0-0-----0-3-0---6-7---6-5-3--0-0-0--0-3-0-

G:----------------------------------------------------------
D:----------------------------------------------------------
A:------3----------------------------3----------------------
D:--6-7---6-5-3--0-0-0--0-3-0----6-7---6-5-3--0-0-0--0-3-0--

G:-----------------------------
D:-----------------------------
A:------3----------------------
D:--6-7---6-5-3--0--0-0-0-0-0--

VERSE:
G:-----------------------------------------------------------
D:-----------------------------------------------------------
A:-----------------------------------------------------------
D:--3-0-0---0-3-0-0-----3-0-0---0-3-0-0-----3-0-0---0-3-0-0--

G:-----------------------------------------------------------------
D:-----------------------------------------------------------------
A:-----------------------------------------------------------------
D:--3-0-0---0-3-0-0----0-3-0--3-0-0---0-3-0-0-----3-0-0---0-3-0-0--

G:-------------------------------------------------
D:-------------------------------------------------
A:-------------------------------------------------
D:--3-0-0---0-3-0-0-----3-0-0---0-3-0-0-----0-3-0--
[ Tab from: http://www.guitartabs.cc/tabs/s/stone_temple_pilots/down_btab_ver_2.html ]
CHORUS/GUITAR SOLO (repeat 1st half longer during guitar solo):
G:-----------------------------------------------------------
D:-----------------------------------------------------------
A:------3-----------------------------3----------------------
D:--6-7---6-5-3--0-0-0--0-3-0-----6-7---6-5-3--0-0-0--0-3-0--

G:-----------------------------------------------------------
D:-----------------------------------------------------------
A:------3-----------------------------3----------------------
D:--6-7---6-5-3--0-0-0--0-3-0-----6-7---6-5-3--0--0-0-0-0-0--

BRIDGE before guitar solo ("will you follow me down now, down now..."):
G:--------------------------------------------------------------------------
D:--------------------------------------------------------------------------
A:--------------------------3 \ (5)-5-5-------3 \ (5)-5-5--------3 \ (5)-5--
D:--7--6--5--4--2-3-3-0-----------------0-0---------------0-0---------------

G:--------------------------------------------------------------------------
D:--------------------------------------------------------------------------
A:--------------------------3 \ (5)-5-5-------3 \ (5)-5-5--------3 \ (5)-5--
D:--7--6--5--4--2-3-3-0-----------------0-0---------------0-0---------------

G:-------------------------------------
D:-------------------------------------
A:--3--2--1--0--5----------------------
D:--------------------4----------------

BRIDGE after guitar solo
G:------------------------------------------------
D:------------------------------------------------
A:------------------------------------------------
D:--3-0-0-----3-0-0-----3-0-0-----3-0-0----0-3-0--

OUTRO:
G:----------------------------------------------------------
D:----------------------------------------------------------
A:----------------------------------------------------------
D:--3-0-0---0-3-0-0-----3-0-0---0-3-0-0-----3-0-0---0-3-0-0-

G:----------------
D:----------------
A:----------------
D:--3-0-0--0--0---

If you have any suggestions, feel free to e-mail me 
(but I'm pretty sure this is all correct)...
I didn't steal this out of a magazine either - 
this is transcribed by my roomie & I.
Comments