Stone Temple Pilots - Dead And Bloated Chords & Tabs

 

Dead And Bloated Chords & Tabs

Stone Temple Pilots Chords & Tabs

Version: 2 Type: Bass Tab 0 ratings
1 star 2 stars 3 stars 4 stars 5 stars
comments

Dead And Bloated Bass Tab

   
Song: Dead & Bloated
Band: Stone Temple Pilots
Album: Core
tabbed by: Jason (sellycell@hotmail.com)

Dropped D tuning

Wait for intro (2 measures) then,
Chorus
G|--------------------------------------------------------------------|
D|--------------------------------------------------------------------|
A|------------------------------------------------------------------5-|
D|-0--0--6-5-3-5-3-0--6-5-3-5-3-0-0--0--6-5-3-5--6-5-3-5--6-5-3-5-3-0-|
[ Tab from: http://www.guitartabs.cc/tabs/s/stone_temple_pilots/dead_and_bloated_btab_ver_2.html ]
Verse
G|----------------------------------------------------|
D|----------------------------------------------------|
A|-2--2-----------------------------------------------|
D|-------5--5-5--5-5---2--2-0-2-0-0-2-0-0-2-0-2-0-2-0-|

Pre-chorus x4
G|---------------------------------|
D|---------------------------------|
A|---------------------------------|
D|-2h4-4-2h4-4-2h4-4-2h4-4-2h4-4-4-|

Bridge
G|-------------------------------------------------------------------|
D|------2-0----------------------------------------------------------|
A|-2-0-------2-0-----------------------------------------------------|
D|----------------5\2-2-2--5\2-2-2-0-2-2-2--5\2-2-2--5\2-2-2-0-2-2-2-|
  |^ ^ ^ ^ ^ ^ ^|
   Really not too sure about this part, for some reason it stumps me.
   The rest I'm sure is spot on. Listen to the track to put it together,
   it's not too hard.
Comments