Stone Temple Pilots - Days Of The Week Chords & Tabs

 

Days Of The Week Chords & Tabs

Stone Temple Pilots Chords & Tabs

Version: 2 Type: Tab 1 rating
1 star 2 stars 3 stars 4 stars 5 stars
comments

Days Of The Week Tab

   
#----------------------------------PLEASE NOTE---------------------------------#
#This file is the author's own work and represents their interpretation of the #
#song. You may only use this file for private study, scholarship, or research. #
#------------------------------------------------------------------------------#

Song:Days of the Week
Words and music by Stone Temple Pilots
Tabbed by conart_cry
From the album 'Shangri-La-Dee-Da'

This is going to be a first!
I'm going to do this vocally. but feel free to just keep strumming
I'm just adding the "vocal" effect!

        Asus4    E                       Bm      A   G
E|----|-0---0----0----0---0-----0---|---------------------|
B|----|-0---0----0----0---0-----0---|---------------------|
G|----|-6---6----4----4---4-----6---|----7--7----6---4--4-|
D|----|-7---7----6----6---6-----7---|----0--0----0---0--0-|
A|----|-7---7----7----7---7-----7---|----x--x----x---x--x-|
E|----|-5---5-------------------5---|----7--7----5---3--3-|
  

     G     A    Bm A   G
E|--------------------------|--0----0----0----0--0--0----0---|
B|--------------------------|--0----0----0----0--0--0----0---|
G|---4-----6----7--6---4----|--5----6----4----4--4--4----6---|
D|---0-----0----0--0---0----|--7----7----6----6--6--6----7---|
A|---x-----x----x--x---x----|--7----7----7----7--7--7----7---|
E|---3-----5----7--5---3----|--5----5--------------------5---|
    

E|----------------------------|-------------------------|
B|----------------------------|-------------------------|
G|----7-7---6--4-----7-7---6--|4----7----7----6--4------|
D|----0-0---0--0-----0-0---0--|0----0----0----0--0------|
A|----x-x---x--x-----x-x---x--|x----x----x----x--x------|
E|----7-7---5--3-----7-7---5--|3----7----7----5--3------|
  

E|--0-----0--------0--0----0--0---0-----|--0------------------------|
B|--0-----0--------0--0----0--0---0-----|--0------------------------|
G|--6-----6--------4--4----4--4---7-----|--6-----7---7----6---4-----|
D|--7-----7--------6--6----6--6---6-----|--7-----0---0----0---0-----|
A|--7-----7--------7--7----7--7---6-----|--7-----x---x----x---x-----|
E|--5-----5-----------------------5-----|--5-----7---7----5---3-----|
  
[ Tab from: http://www.guitartabs.cc/tabs/s/stone_temple_pilots/days_of_the_week_tab_ver_2.html ]
E|-------------------------|--0-----0-------0--0---0--0--0-----0----|
B|-------------------------|--0-----0-------0--0---0--0--0-----0----|
G|-4-----6---7--7---6-4----|--6-----6-------4--4---4--4--4-----6----|
D|-0-----0---0--0---0-0----|--7-----7-------6--6---6--6--6-----7----|
A|-x-----x---x--x---x-x----|--7-----7-------7--7---7--7--7-----7----|
E|-3-----5---7--7---5-3----|--5-----5--------------------------5----|
  

E|---------------------------------------------------------|
B|---------------------------------------------------------|
G|----7--7----6---4-----7--7----6---4----7-----7----6-4----|
D|----0--0----0---0-----0--0----0---0----0-----0----0-0----|
A|----x--x----x---x-----x--x----x---x----x-----x----x-x----|
E|----7--7----5---3-----7--7----5---3----7-----7----5-3----|
  

Chorus:

E|---------------0--0--0--0-----------|-----------------0----|
B|-2-2--2--2-----0--0--0--0---2--2----|--2--2--2--2-----0----|
G|-3-3--3--3-----4--4--4--4---3--3----|--3--3--3--3--x--4----|
D|-4-4--4--4-----4--4--4--4---4--4----|--4--4--4--4--x--4----|
A|-4-4--4--4-----2--2--2--2---4--4----|--4--4--4--4--x--2----|
E|-2-2--2--2------------------2--2----|--2--2--2--2----------|
        I gotta find a way to find her  Where could she be?

E|------0-0-0-0----0-0-0-0---0-0-0----|--0---0----0-----0--0--0--0--0---|
B|------3-3-3-3----3-3-3-3---3-3-3----|--0---0----0-----0--0--0--0--0---|
G|------0-2-2-2----0-2-2-2---0-2-2----|--6---6----6-----4--4--4--4--6---|
D|------0-0-0-0----0-0-0-0---0-0-0----|--7---7----7-----6--6--6--6--7---|
A|------x-x-x-x----x-x-x-x---x-x-x----|--7---7----7-----7--7--7--7--7---|
E|------3-3-3-3----3-3-3-3---3-3-3----|--5---5----5-----------------5---|
  Four days of the week She thinks I'm the enemy!

E|------------------------|
B|------------------------|
G|-7-7-6-4-4-4-6-7-7-6-4--|
D|-0-0-0-0-0-0-0-0-0-0-0--|
A|-x-x-x-x-x-x-x-x-x-x-x--|
E|-7-7-5-3-3-3-5-7-7-5-3--|

(Well I hope I showed you guys ((N gals)) enough for you to do it on your own

Chorus

E|-0--0-----0----0---0-----0------0----0-----0----0----0-----0---0---3-2---------|
B|-3--3-----3----3---3-----3------3----3-----3----3----3-----3---3---3-3---------|
G|-2--2-----2----2---2-----2------2----2-----2----2----2-----2---0---2-0---------|
D|-2--2-----0----2---2-----0------2----2-----0----2----2-----0---0---0-0----%----|
A|-0--0-----x----0---0-----x------0----0-----x----0----0-----x---x---x-x---------|
E|----------3--------------3-----------------3---------------3---3---3-3---------|
   


Chorus:

E|------0-0-0-0----0-0---0-0-0-0---|--0-0----0-0-0-0---0-0---0-0-0-0---0--0|
B|------3-3-3-3----3-3---3-3-3-3---|--3-3----3-3-3-3---3-3---3-3-3-3---3--3|
G|------0-2-2-2----0-2---0-2-2-2---|--0-2----0-2-2-2---0-2---0-2-2-2---0--2|
D|------0-0-0-0----0-0---0-0-0-0---|--0-0----0-0-0-0---0-0---0-0-0-0---0--0|
A|------x-x-x-x----x-x---x-x-x-x---|--x-x----x-x-x-x---x-x---x-x-x-x---x--x|
E|------3-3-3-3----3-3---3-3-3-3---|--3-3----3-3-3-3---3-3---3-3-3-3---3--3|
 

Questions, comments or maybe request, please Private Message me if you're a member of GTU!
Comments