Stone Temple Pilots - Days Of The Week Chords & Tabs

 

Days Of The Week Chords & Tabs

Stone Temple Pilots Chords & Tabs

Version: 1 Type: Bass Tab 0 ratings
1 star 2 stars 3 stars 4 stars 5 stars
comments

Days Of The Week Bass Tab

"Days of the Week"
Stone Temple Pilots - Sangri-La Dee Da

Rev. 3

The "|" marks are the downbeats

Bass Tab
by Chris P.

Verse:
Mon |     |     |     |     |     |     |     |      
G:---------------------------------------------------
D:-------------------------------------/7-----7------
A:-----------------------4-----5-----7---------------
E:--5--------0--5------------------------------------
    |     |     |     |     |     |     |     |      
G:---------------------------------------------------
D:---------------------------------------------------
A:-----0--2--0-----------------0-----2--0------------
E:--3--------------3-----3-----------------3--3------
Tue |     |     |     |     |     |     |     |      
G:---------------------------------------------------
D:-------------------------------------/7-----7------
A:-----------------------4-----5-----7---------------
E:--5--------0--5------------------------------------
    |     |     |     |     |     |     |     |      
G:---------------------------------------------------
D:----------------------/5-----4-----2---------------
A:-----0--2--0-----------------------------5--4--7---
E:--3--------------3---------------------------------
  At 3rd verse START here.
Wed |     |     |     |     |     |     |     |      
G:---------------------------------------------------
D:-------------------------------------/7-----7------
A:-----------------------4-----5-----7---------------
E:--5--------0--5------------------------------------
    |     |     |     |     |     |     |     |      
G:---------------------------------------------------
D:---------------------------------------------------
A:-----0--2--0-----------------0-----2--0------------
E:--3--------------3-----3-----------------3--3------
Thu |     |     |     |     |     |     |     |      
G:---------------------------------------------------
D:-------------------------------------/7-----7------
A:-----------------------4-----5-----7---------------
E:--5--------0--5------------------------------------
    |     |     |     |     |     |     |     |      
G:---------------------------------------------------
D:---------------------------------------------------
A:-----0--2--0-----------5-----4-----2-----0---------
E:--3--------------3--------------------------4\-----

[ Tab from: http://www.guitartabs.cc/tabs/s/stone_temple_pilots/days_of_the_week_btab.html ]
Chorus:
    |     |     |     |     |     |     |     |      
G:---------------------------------------------------
D:---------------------------------------------------
A:-----------------------2-----2--2-----2--2--4--2---
E:--2-----2-----2--2---------------------------------
    |     |     |     |     |     |     |     |      
G:---------------------------------------------------
D:-----------------------------------------0--2--4---
A:-----------------------2-----2--2-----4------------
E:--2-----2-----2--2---------------------------------
    |     |     |     |     |     |     |     |      
G:--------------------4--4--4--6-------/7----/7------
D:--5--5--5--7---------------------------------------
A:---------------------------------------------------
E:---------------------------------------------------
  At 2nd chorus skip to "bridge" now-
    |     |     |     |     |     |     |     |      
G:--6------------------------------------------------
D:-----------7--7-----------------------7--5---------
A:-----------------------7-----7-----5-7------7\-----
E:---------------------------------------------------
    |     |     |     |     |     |     |     |      
G:---------------------------------------------------
D:----------------------/5-----4-----2---------------
A:-----0--2--0-----------------------------5--4--7---
E:--3--------------3---------------------------------


Bridge:
    |     |     |     |     |     |     |     |      
G:--6--------------------------7--------7------------
D:-----------7--7--------7--5--------5---------------
A:---------------------------------------------------
E:---------------------------------------------------
    |     |     |     |     |     |     |     |      
G:--6--------------------------7--------7------------
D:-----------7--7--------7--5--------5---------------
A:---------------------------------------------------
E:---------------------------------------------------
    |     |     |     |     |     |     |     |      
G:--6--------------------------7--------7------------
D:-----------7--7--------7--5--------5---------------
A:---------------------------------------------------
E:---------------------------------------------------
    |     |     |     |     |     |
G:--6--------------------------7---------------------
D:-----------7--7--------7--5-----5------------------
A:---------------------------------------------------
E:--------------------------------------------hold...

Song Order:
Verse1:  Play verse
Chorus1: Play chorus
Verse2:  Play verse
Chorus2: Play chorus but to bridge where it says to
Bridge:  Play bridge
Verse3:  Play verse but make sure to start at the "wed" part
Chorus3: Play chorus but repeat end part 3 times and end on 3rd beat the 3rd time.



Taken from The Bass Tab Archive ~ http://www.basstabarchive.com
Comments