Stone Temple Pilots - Creep Chords & Tabs

 

Creep Chords & Tabs

Stone Temple Pilots Chords & Tabs

Version: 1 Type: Chords 0 ratings
1 star 2 stars 3 stars 4 stars 5 stars
comments

Creep Chords

   
Creep - Stone Temple Pilots

this song is pretty easy and im almost 100% sure this is right.

Intro -- 

   C      B7    Em    
e ---    ---   ---
b -1-    ---   ---
g ---    -2-   ---
d -2-    -1-   -2- 
a -3-    -2-   -2-
E ---    ---   ---

The rythum is kind of tricky. throughout the song you do it in the 
same pattern. You go down 3 and up 2 and then down 2 again. but when 
you switch from C to B7, you switch in between the ups. if you listen 
to the song you can catch it.

Verse - Em C B7 again, using that pattern

The pre-chourus (take time with a...) -- 
[ Tab from: http://www.guitartabs.cc/tabs/s/stone_temple_pilots/creep_crd.html ]
     G     Am    Em
e   -3-    --- 
b   ---    -1-
g   ---    -2-
d   ---    -2-
a   -2-    --- 
E   -3-    ---


This time switch between G and Am


Chourus (well im half the man.....) -- 

e -----------------------------------------------------------
b -----------------------------------------------------------
g -0-----2----0----------------------------------------------
d -2-----0----0----------2-----------------------------------
a -2-----0----2----0-1-2-------------------------------------
E -0-----2----3----------------------------------------------


and then repeat and all that. email me at bigempty28@cs.com for 
questions or corrections. take it easy.
Comments