Stone Temple Pilots - Creep Chords & Tabs

 

Creep Chords & Tabs

Stone Temple Pilots Chords & Tabs

Version: 1 Type: Bass Tab 0 ratings
1 star 2 stars 3 stars 4 stars 5 stars
comments

Creep Bass Tab

"Creep"
Stone Temple Pilots - Core

bass tab
transcribed by Joe "Cuatro" M. (cuatro01@att.net)

INTRO
G:--------------------------------------------------
D:--------------------------------------------------
A:--3---3--2-2--2------------------5-7--------------
E:------------------0---0--0-0---7-----0---0--0-0---

G:----------------------
D:----------------------
A:--2--3-----3--2-------
E:------------------0---


VERSE
G:------------------------------------------------------------------
D:------------------------------------------------------------------
A:---------------2--3---3--2-2--2-----------------2--3---3--2-2--2--
E:--0---0--0-0----------------------0----0--0-0---------------------

G:------------------------------------------------------------------
D:------------------------------------------------------------------
A:---------------2--3---3--2-2--2-----------------2--3---3--2-2--2--
E:--0---0--0-0----------------------0----0--0-0---------------------


G:-----------------------------------------
D:-----------------------------------------
A:-----------------5-7---------------------
E:--0---0--0-0---7-----0---0--0-0---0-0-2--


CHORUS 1 & 2
    "take time..."
G:------------------------------------------
D:------------------------------------------
A:------------------------------------------
E:--3-3---3--5-5--5--5\0----0--0-0---0-0-2--

    "take time..."
G:------------------------------------------
D:------------------------------------------
A:------------------------------------------
E:--3-3---3--5-5--5--5\0----0--0-0---0-0-2--
[ Tab from: http://www.guitartabs.cc/tabs/s/stone_temple_pilots/creep_btab.html ]
    "take time..."
G:---------------------------------------
D:---------------------------------------
A:----------------------3---3--3-5-5-5---
E:--3-3---3--5-5--5--5-------------------

"I'm half..."   repeat 4 times
G:-----------------------------------------------
D:---------------------0-2-----------------------
A:-----------------0-2--------------------0-1-2--
E:--0--0-2--2-3--3----------0--0-2---3--3--------


BRIDGE 1
G:----------------------------------------------------
D:--------------------------14-13----12\11----9-8-----
A:-----------------5-7------------14-------12---------
E:--0---0--0-0---7-----0---0--------------------------


BRIDGE 2
G:--------------------------------------
D:--------------------------------------
A:--------------------------------------
E:--0--------0--------0--------0--------


CHORUS 3
G:---------------------------------7---------
D:-------------------------------5-----5-----
A:---------------------------5-7---------7\--
E:--3-3---3--5-5--5--5/0---0-----------------

G:------------------------------------------
D:------------------------------------------
A:------------------------------------------
E:--3-3---3--5-5--5--5\0----0--0-0---0-0-2--

G:-------------------------------------------
D:-----------------------------2------5-4----
A:----------------------3----3---3--5-----5--
E:--3-3---3--5-5--5--5-----3-----------------

"I'm half..."   repeat 4 times
G:-----------------------------------------------
D:---------------------0-2-----------------------
A:-----------------0-2--------------------0-1-2--
E:--0--0-2--2-3--3----------0--0-2---3--3--------

Comments