Stone Temple Pilots - Big Empty Chords & Tabs

 

Big Empty Chords & Tabs

Stone Temple Pilots Chords & Tabs

Version: 4 Type: Tab 0 ratings
1 star 2 stars 3 stars 4 stars 5 stars
comments

Big Empty Tab

   
-------------------------------------------------------------------------------
			   Big Empty   -   STONE TEMPLE PILOTS
-------------------------------------------------------------------------------
Tabbed by: Lirikal	
Email:lirikal2000@hotmail.com

Tuning:E A D G B E


| b    bend full
| b(X) ben to note
| b%   bend 1/4
|(X)   ghost note 
| /    slide up
| \    slide down
| h    hammer-on
| p    pull-off
| ~    vibrato
| +    harmonic
| x    Mute note
| PM   Palm mute
| T    tapping


Chords:

       Em7        C9      
      022030    x32333    

        G         A7       C      
      355433    575655   x35553

        F7      E7sus4     E7
      131211    020200   020100


First Solo:

e:---------------------3/7-10~-7-10-6~-\3-5-5/6\5-3--5-3--3/7-10~--
B:-8~-7-8-7~-\3-3-3~-0---------------------------------------------
G:-----------------------------------------------------------------
D:-----------------------------------------------------------------
A:-----------------------------------------------------------------
E:-----------------------------------------------------------------


VERSE:

Em7                  C9
Driving faster in my car
Falling farther from just what we are
Smoke a cigarette and lie some more
These conversations kill
Driving faster in my car


CHORUS:

G       A7      
Time to take her home
     C                               
Her dizzy head is conscience laden
Time to take a ride that leaves today
No conversation
Time to take her home
Her dizzy head is conscience laden
Time to wait to long
To wait to long, to wait to long

G F7 E7sus4 E7

Second Solo:

e---10/12\3-3/6~------3-5-6~--3-5-3-3/7-10~--10/12\10-6~--3/6-3/5-------
B-----------------3/5---------------------------------------------3/5~--
G:----------------------------------------------------------------------
D:----------------------------------------------------------------------
A:----------------------------------------------------------------------
E:----------------------------------------------------------------------


VERSE:
[ Tab from: http://www.guitartabs.cc/tabs/s/stone_temple_pilots/big_empty_tab_ver_4.html ]
Em7			    C9
Too much walkin' shoes worn thin
Too much trippin' and my soul's worn thin
Time to catch a ride that leaves today
Her name is what is means
Too much walkin' shoes worn thin


CHORUS:

G       A7       
Time to take her home
     C                               
Her dizzy head is conscience laden
Time to take a ride that leaves today
No conversation
Time to take her home
Her dizzy head is conscience laden
Time to wait to long
To wait to long, to wait to long

G F7 E7sus4 E7
G F7 E7sus4 E7
G F7 E7sus4 E7
G F7 E7sus4
Conversation kills...


INTERLUDE:

Guitar 1:

     A
e:|-----------|----------------------------------------------------
B:|-----------|----------------------------------------------------
G:|*---6-7-6-*|---6-7-6--------6-7-7/9-7-6------6-7-6--------------
D:|*-7-------*|-7-------7----7-------------7--7-------7------------
A:|-----------|-----------7-----------------------------7----------
E:|-----------|----------------------------------------------------


Guitar 2:

e:-------------------------------------------------------------
B:-/8~----7-8-7~----7-8-(8)/10~----8-10-(10)/12~----10-12/14~--
G:-------------------------------------------------------------
D:-------------------------------------------------------------
A:-------------------------------------------------------------
E:-------------------------------------------------------------

e:-----------------------------------
B:--14/15~-15~-15~-15~-15~-15~-15~\--
G:-----------------------------------
D:-----------------------------------
A:-----------------------------------
E:-----------------------------------


CHORUS:

G       A7       
Time to take her home
     C                               
Her dizzy head is conscience laden
Time to take a ride that leaves today
No conversation
Time to take her home
Her dizzy head is conscience laden
Time to wait to long
To wait to long, to wait to long

G F7 E7sus4 E7
G F7 E7sus4 E7
G F7 E7sus4 E7
Conversation kills...


ENJOY IT!!
===============================================================================
Comments