Stone Temple Pilots - Big Bang Baby Chords & Tabs

 

Big Bang Baby Chords & Tabs

Stone Temple Pilots Chords & Tabs

Version: 3 Type: Tab

Big Bang Baby Tab

Big Bang Baby
Stone Temple Pilots
Purple
Tabs by F-Kop


Main Riff
=========

---------------------------------|
---------------------------------|
---------------------------------|
-------------7-6-5-5-4-3-------7-|
-2-2-5-6-7-7-5-4-3-3-2-1-5-5-7-5-|
-0-0-3-4-5-5-------------3-3-5---|

---------------------------------|
---------------------------------|
-------------------------------4-|
-------------7-6-5-5-4-3-2-2-4-2-|
-2-2-5-6-7-7-5-4-3-3-2-1-0-0-2---|
-0-0-3-4-5-5---------------------|

last time:

-------------------------------|
-------------------------------|
---------------------------4---|
-------------7-6-5-5-4-3-4-2-2-|
-2-2-5-6-7-7-5-4-3-3-2-1-2---0-|
-0-0-3-4-5-5-------------------|


Chorus 1
========

-------------------------------|
-------------------------------|
-5---5-5-5-5-5-2---2-2-2-2-2-2-|
-5---5-5-5-5-5-2---2-2-2-2-2-2-|
-3---3-3-3-3-3-0---0-0-0-0-0-0-|
-------------------------------|
[ Tab from: http://www.guitartabs.cc/tabs/s/stone_temple_pilots/big_bang_baby_tab_ver_3.html ]
-----0-----0-----0---0-----0-----|
---------------------------------|
-2-1---1-2---2-1---1---1-2---2-1-|
---------------------------------|
---------------------------------|
---------------------------------|

-------------------------------|
-------------------------------|
-5---5-5-5-5-5-7---7-7-7-7-7-7-|
-5---5-5-5-5-5-7---7-7-7-7-7-7-|
-3---3-3-3-3-3-5---5-5-5-5-5-5-|
-------------------------------|


Chorus 2
========

-0---0-0-0-0-0-0---0-0-0-0-0-0-|
-0---0-0-0-0-0-1---1-1-1-1-1-1-|
-1---1-1-1-1-1-0---0-0-0-0-0-0-|
-2---2-2-2-2-2-2---2-2-2-2-2-2-|
-2---2-2-2-2-2-3---3-3-3-3-3-3-|
-0---0-0-0-0-0-----------------|

-0---0-0-0-0-0-0---0-0-0-0-0-0-|
-0---0-0-0-0-0-1---1-1-1-1-1-1-|
-1---1-1-1-1-1-0---0-0-0-0-0-0-|
-2---2-2-2-2-2-2---2-2-2-2-2-2-|
-2---2-2-2-2-2-3---3-3-3-3-3-3-|
-0---0-0-0-0-0-----------------|

-0---0-0-0-0-0---------0---0-0-0-|
-1---1-1-1-1-1-3---3-3-1---1-1-1-|
-2---2-2-2-2-2-2---2-2-2---2-2-2-|
-2---2-2-2-2-2-0---0-0-2---2-2-2-| } repeat
-0---0-0-0-0-0-0---0-0-0---0-0-0-|
---------------------------------|

-0---0-0-0-0-0-0---0-0-0-0-0-0-0-|
-0---0-0-0-0-0-0---0-0-0-0-0-0-0-|
-1---1-1-1-1-1-1---1-1-1-1-1-1-1-|
-2---2-2-2-2-2-2---2-2-2-2-2-2-2-|
-2---2-2-2-2-2-2---2-2-2-2-2-2-2-|
-0---0-0-0-0-0-0---0-0-0-0-0-0-0-|