Stone Temple Pilots - Big Bang Baby Chords & Tabs

 

Big Bang Baby Chords & Tabs

Stone Temple Pilots Chords & Tabs

Version: 1 Type: Bass Tab 0 ratings
1 star 2 stars 3 stars 4 stars 5 stars
comments

Big Bang Baby Bass Tab

"Big Bang Baby"
Stone Temple Pilots 
Tiny Music... Songs From the Vatican Gift Shop

bass tab
transcribed by Joe M. (cuatro01@att.net)

INTRO/VERSE 1
G:-----------------------------------------------------------------
D:-----------------------------------------------------------------
A:-------------5-4-3-3-2-1-------5-------------5-4-3-3-2-1-------7-
E:-0-0-3-4-5-5-------------3-3-5---0-0-3-4-5-5-------------5-5-7---

G:-----------------------------------------------------------------
D:-----------------------------------------------------------------
A:-------------5-4-3-3-2-1-------5-------------5-4-3-3-2-1-------7-
E:-0-0-3-4-5-5-------------3-3-5---0-0-3-4-5-5-------------5-5-7---

                                 "so turn it up..."
G:-----------------------------------------------------------------
D:-----------------------------------------------------------------
A:-------------5-4-3-3-2-1-------5-------------5-4-3-3-2-1-------5-
E:-0-0-3-4-5-5-------------3-3-5---0-0-3-4-5-5-------------3-3-5---

G:-----------------------------------------------------------------
D:-----------------------------------------------------------------
A:-------------5-4-3-3-2-1-------7-------------5-4-3-3-2-1-------5-
E:-0-0-3-4-5-5-------------5-5-7---0-0-3-4-5-5-------------3-3-5---

G:---------------------------------
D:---------------------------------
A:-------------5-4-3-3-2-1---7---3-
E:-0-0-3-4-5-5-------------7---5---

   "sell your soul..."
G:-----------------------------------------------------------
D:--------------------------5--------------------------------
A:-3-3--3-----3-0-0-0-0-5-7---5-7-7--7-7-7--7--7-7---7---7-5-
E:--------3-5--------------------------------------7---7-----
  "I wanna cry..."        
G:-------------------------------------------------------------
D:-------------------------------------------------------------
A:-3-3-3-----3-5-5-5-5-5-----5---7-7--7-7-7--7--7-7---7--------
E:-------3-5-------------5-7---7--------------------7---7-15\--


VERSE 2 & 3
(repeat 1st part 3 times for verse 2)
G:-----------------------------------------------------------------
D:-----------------------------------------------------------------
A:-------------5-4-3-3-2-1-------5-------------5-4-3-3-2-1-------7-
E:-0-0-3-4-5-5-------------3-3-5---0-0-3-4-5-5-------------5-5-7---
[ Tab from: http://www.guitartabs.cc/tabs/s/stone_temple_pilots/big_bang_baby_btab.html ]
  "does anybody know..."
G:-----------------------------------------------------------------
D:-----------------------------------------------------------------
A:-------------5-4-3-3-2-1-------5-------------5-4-3-3-2-1---7---3-
E:-0-0-3-4-5-5-------------3-3-5---0-0-3-4-5-5-------------7---5---

   "sell your soul..."
G:-----------------------------------------------------------
D:--------------------------5--------------------------------
A:-3-3--3-----3-0-0-0-0-5-7---5-7-7--7-7-7--7--7-7---7---7-5-
E:--------3-5--------------------------------------7---7-----

  "I wanna cry..."        
G:-------------------------------------------------------------
D:-------------------------------------------------------------
A:-3-3-3-----3-5-5-5-5-5-----5---7-7--7-7-7--7--7-7---7--------
E:-------3-5-------------5-7---7--------------------7---7-15\--

CHORUS
repeat twice
G:-------------------------------------------------------------
D:----------6-9-10--10-10-----10-10--------------6-9-10--10-10-
A:-7--7---7----------------10-------10--7--7---7---------------
E:------7------------------------------------7-----------------

G:--------------------------------------------------------
D:-----10-10----------------------------------------------
A:--10-------10-11-12-12----12-12-12-17--17-17-12--12-12\-
E:-----------------------12-------------------------------

END OF CHORUS 1
G:------------------------------------------------
D:----14-------12h14-12h14------------------------
A:------------------------------------------------
E:-12----12-12-------------12-12-12-12-12-12/19\--

END OF CHORUS 2
(I'm not sure about this part)
G:---------------------------------------------------
D:----14-------12h14-12h14-12h14-14-14-12h14-14------
A:---------------------------------------------------
E:-12----12-12----------------------------------15\--

OUTRO
G:-----------------------------------------------------------------
D:-----------------------------------------------------------------
A:-------------5-4-3-3-2-1-------5-------------5-4-3-3-2-1-------7-
E:-0-0-3-4-5-5-------------3-3-5---0-0-3-4-5-5-------------5-5-7---

G:-----------------------------------------------------
D:-----------------------------------------------------
A:-------------5-4-3-3-2-1-------5-------------5-4-3-3-
E:-0-0-3-4-5-5-------------3-3-5---0-0-3-4-5-5---------

Comments