Stone Temple Pilots - Bi Polar Bear Chords & Tabs

 

Bi Polar Bear Chords & Tabs

Stone Temple Pilots Chords & Tabs

Version: 2 Type: Tab 0 ratings
1 star 2 stars 3 stars 4 stars 5 stars
comments

Bi Polar Bear Tab

Stone Temple Pilots
Bi-Polar Bear

This Song is in Drop D tuning!  (DADGBE)

Intro/Verse

---------------------------------------------------------
----0----0-0--x--0----0----0----0------------------------
----4----4-4--x--4----4----4----4------------------------
----0----0-0--x--0----0----0----0------------------------
----x----x-x--x--x----x----x----x--------------3---3-3-3-
-5-----5------x--5--5----5----5----5---7-8-7-\-3---2-3-2- \
                                                          repeat as necessary
--------------------------------------------------------- /
---------------------------------------------------------
---------------------------------------------------------
-11--11-11-11-11-11-11-12-------------------------------- 
--x---x--x--x--x--x--x--x--------------------------------
-11--11-11-11-11-11-11/12--------------------------------

Prechorus

---------------------------------------------------------
---------------------------------------------------------
-7--7---7-7/9--9-9/11--11/13--13-13-13-13-13-13-13-13----
-x--x---x-x-x--x-x-x----x--x---x--x--x--x--x--x--x--x----
-5--5---5-5/7--7-7/9----9/11--11-11-11-11-11-11-11-11----
-0--0---0-0-0--0-0-0----0-0----0--0--0--0--0--0--0--0----

Chorus
[ Tab from: http://www.guitartabs.cc/tabs/s/stone_temple_pilots/bi_polar_bear_tab_ver_2.html ]
---------------------------------------------------------
-------------------------------------------7---5---------
-7--7-7--7-7--7-7--7-7--7-7--7-7--7-7--------7---5-------
-5--5-5--5-5--5-5--5-5--5-5--5-5--5-5--0-----------------
-5--5-5--5-5--5-5--5-5--5-5--5-5--5-5--0-----------------
-5--5-5--5-5--5-5--5-5--5-5--5-5--5-5--0-----------------

---------------------------------------------------------
---------------------7---5-------------------------------
-----------------------7---5-----------------------------
-0-0-0-0-0-0-0-0-0-0---------0-0-0-0-0-0-0-0-------------
-0-0-0-0-0-0-0-0-0-0---------0-0-0-0-0-0-0-0-------------
-0-5-0-0-4-0-0-0-0-0---------0-5-0-0-4-0-0-0-------------

Postchorus

---------------------------------------------------------
-14--14--14-14-14--12~~----------------------------------
-14--14--14-14-14--14~~----------------------------------
--0---0---0--0--0----------------------------------------
--0---0---0--0--0----------------------------------------
---------------------------------------------------------

Outro

---------------------------------------------------------
-3-2----3-2----3-2-----0--0-0-0-0------------------------
-----2------2------0---0--0-0-0-0------------------------
-----------------------0--0-0-0-0------------------------
-----------------------x--x-x-x-x------------------------
-----------------------5--5-5-5-5------------------------

There's a slide thing going on in the outro that I couldn't
get, and at the end of it there's something on the low D 
that I couldn't quite get either. So have fun with the song,
it sounds pretty dead on. Feel free to fix it if you see the
need to.
Comments