Stone Temple Pilots - Army Ants Chords & Tabs

 

Army Ants Chords & Tabs

Stone Temple Pilots Chords & Tabs

Version: 1 Type: Tab 0 ratings
1 star 2 stars 3 stars 4 stars 5 stars
comments

Army Ants Tab

   
#----------------------------------PLEASE NOTE---------------------------------#
#This file is the author's own work and represents their interpretation of the #
#song. You may only use this file for private study, scholarship, or research. #
#------------------------------------------------------------------------------#
#


From j.p.juneau@arcadis.be Tue Apr  8 12:58:34 1997
Date: Mon, 10 Mar 1997 21:15:38 +0100
From: "J.P.Juneau" 
Subject: tab/stone temple pilots/army ants

    [The following text is in the "ISO-8859-1" character set]
    [Your display is set for the "US-ASCII" character set]
    [Some characters may be displayed incorrectly]



ARMY ANTS
STONE TEMPLE PILOTS

I guess that everybody who has purple (or whatever you want to
call that album),loves this song. It's so powerful !!!!
Anyway, it's very easy to play, you just have to properly keep
the rhythm.
I believe it's tuned half a step down.

I'm not going to tab out the weird intro because i haven't
figured it out. But what i do know is that the effect is
achieved using a phase shifter.



main riff:   fast  (X4)
    D5       A5   B5   E5 F5           C5
e:---------------------------------------------------------------

B:---------------------------------------------------------------

G:--77777777-----------9/10101010101010--------------------------

D:--77777777-7777-9999-9/101010101010101010101010101010----------

A:--55555555-7777-9999-7/8-8-8-8-8-8-8-1010101010101010----------
            
E:--55555555-5555-7777-7/8-8-8-8-8-8-8-8-8-8-8-8-8-8-8-----------





verse: 
e:--------------------------------------        --x-x-x-x-x----
B:--------------------------------------        --x-x-x-x-x----
G:--7-7-7-7-7-7-5-5-5-5-5-5-5--5-5-5-5-- X3.5   --x-x-x-x-x----
D:--7-7-7-7-7-7-5-5-5-5-5-5-5--5-5-5-5--   then --x-x-x-x-x----
A:--0-0-0-0-0-0-0-0-0-0-0-0-0--0-0-0-0--        --x-x-x-x-x----
E:--------------------------------------        --x-x-x-x-x----
    you don't   look but you kick me ..........

[ Tab from: http://www.guitartabs.cc/tabs/s/stone_temple_pilots/army_ants_tab.html ]
pre-chorus:   (X4)
    A
e:---------------------------------- 2nd time    --------------
B:--2-2-2-2-2-2-2-2---2--2-2-2-2---- start the   -0h2-2-2-2-2--
G:--2-2-2-2-2-2-2-2---2--2-2-2-2---- mesure like -2---2-2-2-2--
D:--2-2-2-2-2-2-2-2---2--2-2-2-2----  this       -2---2-2-2-2--
A:--0-0-0-0-0-0-0-0---0--0-0-0-0----             -0---0-0-0-0--
E:----------------------------------             --------------
           why do we all have to look this way..........


chorus:  main riff (X4)

verse : Same as verse 1

pre-chorus.

chorus.

Bridge:
    Ebsus2   Asus9??     Dsus2
e:---6-6-6---------------5-5-5-5-5-5-5-----------
B:---6-6-6---2--2-2-2----5-5-5-5-5-5-5-----------
G:---8-8-8---3--3-3-3----7-7-7-7-7-7-7-----------
D:---8-8-8---2--2-2-2----7-7-7-7-7-7-7-----------
A:---6-6-6---0--0-0-0----5-5-5-5-5-5-5-----------
E:---6-6-6---------------5-5-5-5-5-5-5-----------

e:---6-6-6-----------------------------
B:---6-6-6---x-x--2---2-2-2-2-2-2------
G:---8-8-8---x-x--3---3-3-3-3-3-3------
D:---8-8-8---x-x--2---2-2-2-2-2-2------
A:---6-6-6---x-x--0---0-0-0-0-0-0------
E:---6-6-6---x-x-----------------------


Now here, it goes back to that stuff from the intro.
Then comes the solo, during which you play the main riff. And
then this

                           D5
e:--6-6----------------------------------------
B:--6-6---x-x--2--2-2-2----3-3-3-3-3-3-3-3-----
G:--8-8---x-x--3--3-3-3----2-2-2-2-2-2-2-2-----  X2
D:--8-8---x-x--2--2-2-2----0-0-0-0-0-0-0-0-----
A:--6-6---x-x--0--0-0-0----0-0-0-0-0-0-0-0-----
E:--6-6---x-x----------------------------------

                                Ab
e:--6-6-------------------------4-4-4-4--------
B:--6-6----2---2-2-2----3--3----4-4-4-4--------
G:--8-8----3---3-3-3----2--2----5-5-5-5--------
D:--8-8----2---2-2-2----0--0----6-6-6-6--------
A:--6-6----0---0-0-0----0--0----6-6-6-6--------
E:--6-6-------------------------4-4-4-4--------



Go back to the verse and pre chorus

For the outro, fiddle around with A and end with Ebsus2.


There it is. I'm pretty sure it's right. If you think i screwed
up somewhere, send me corrections. I'll be glad to recieve them.

Have fun, drink milk.
J.P.
Comments