Stone Temple Pilots - And So I Know Chords & Tabs

 

And So I Know Chords & Tabs

Stone Temple Pilots Chords & Tabs

Version: 1 Type: Tab 0 ratings
1 star 2 stars 3 stars 4 stars 5 stars
comments

And So I Know Tab

Artist:  Stone Temple Pilots
Song:    And So I Know
Album:   Tiny Music... Songs from the Vatican Gift Shop.

Intro. and verse
[ Tab from: http://www.guitartabs.cc/tabs/s/stone_temple_pilots/and_so_i_know_tab.html ]
e------------------------------------------7-7-7-7----7----
b--------------7-7-7-7----7----------------7-7-7-7----7----
g--------------8-8-8-8----8----------------7-7-7-7----7----
d--9/11--9/11--9-9-9-9----9----9/11--9/11--5-5-5-5----5----
a--9/11--9/11--7-7-7-7----7----9/11--9/11--7-7-7-7----7----
e----------------------------------------------------------
                   And So I know...       Its begun again...
Chorus

e-------------------------------------------------2-2-2-2--
b--2-2-2-2-2-2---5-5-5-5-5-5-5---3-3-3-3--2-2-2---2-2-0-0--
g--1-1-1-1-1-1---4-4-4-4-4-4-4---5-5-5-5--3-3-3---2-2-2-2--
d--2-2-2-2-2-2---5-5-5-5-5-5-5---4-4-4-4--3-3-3---2-2-1-1--
a--0-0-0-0-0-0-2-3-3-3-3-3-3-3---5-5-5-5--------------2-2--
e-----------------------------------------2-2-2---2-2------
   Nev______er ever ever ever be this way....

~Eric Lewis
Comments