Stone Sour - Tumult Chords & Tabs

 

Tumult Chords & Tabs

Stone Sour Chords & Tabs

Version: 3 Type: Tab 0 ratings
1 star 2 stars 3 stars 4 stars 5 stars
comments

Tumult Tab

   
Stone Sour - Tumult

Tabbed by Tinboy

Tuning B F# B E G# C#

Intro

|-------------------------------------------------------------------|
|-------------------------------------------------------------------|
|-----------9----------9-7-10----------9--12-12-12/14---------------|
|---0-0-0-0-9--0-0-0-0-9-7-10--0-0-0-0-9--12-12-12/14---------------| x3
|---0-0-0-0-7--0-0-0-0-7-5-8---0-0-0-0-7--10-10-10/12---------------|
|---0-0-0-0----0-0-0-0---------0-0-0-0------------------------------|

|-------------------------------------------------------------------|
|-------------------------------------------------------------------|
|-----------9----------9-7-10-9-------------------------------------|
|---0-0-0-0-9--0-0-0-0-9-7-10-9-------------------------------------|
|---0-0-0-0-7--0-0-0-0-7-5-8--7-------------------------------------|
|---0-0-0-0----0-0-0-0----------------------------------------------|
				"GODDAMN YOU!"

|-------------------------------------------------------------------|
|-------------------------------------------------------------------|
|-----------9----------9-7-10---------------------------------------|
|---0-0-0-0-9--0-0-0-0-9-7-10---------------------------------------| x8
|---0-0-0-0-7--0-0-0-0-7-5-8----------------------------------------|
|---0-0-0-0----0-0-0-0----------------------------------------------|

Verse (with pitch-shifter)

|-------------------------------------------------------------------|
|-------------------------------------------------------------------|
|-------------------------------------------------------------------|
|-------------------------------------------------------------------| x8
|-------------------------------------------------------------------|
|---0-^---0-^-0-^--0-^---0-^-0-^------------------------------------|

^ indicates pitch shifter on, listen you'll hear it in background of verse.
Play the next two bars above the pitch-shifter part.

|-------------------------------------------------------------------|
|-------------------------------------------------------------------|
|-----------------------9-9-----------------------9-9---------------|
|-----------------------9-9-----------------------9-9---------------|
|-----------------------7-7-----------------------7-7---------------|
|-------------------------------------------------------------------|
"Must have been a bitch,    Must have been a pain"

|-------------------------------------------------------------------|
|-------------------------------------------------------------------|
|---------------------------9-9----------------------9-9-9-9-9-9----|
|---------------------------9-9----------------------9-9-9-9-9-9----|
|---------------------------7-7----------------------7-7-7-7-7-7----|
|-------------------------------------------------------------------|
"Take me off the 'innocent',    put me in your vein!"

Chorus

|-------------------------------------------------------------------|
|-------------------------------------------------------------------|
|-----------9----------9-7-10---------------------------------------|
|---0-0-0-0-9--0-0-0-0-9-7-10---------------------------------------| x4
|---0-0-0-0-7--0-0-0-0-7-5-8----------------------------------------|
|---0-0-0-0----0-0-0-0----------------------------------------------|
[ Tab from: http://www.guitartabs.cc/tabs/s/stone_sour/tumult_tab_ver_3.html ]
|-------------------------------------------------------------------|
|-------------------------------------------------------------------|
|-------------------------------------------------------------------|
|-------------------------------------------------------------------| x4
|-------------------------------------------------------------------|
|---0-^~--0-^-0-^--0-^~--0-^-0-^------------------------------------|

2nd Verse

|-------------------------------------------------------------------|
|-------------------------------------------------------------------|
|-------------------------------------------------------------------|
|-------------------------------------------------------------------| x4
|-------------------------------------------------------------------|
|---0-^~~~~~~~~---0-^~~~~~~~~---------------------------------------|

Hold pitch-shifted note

|-------------------------------------------------------------------|
|-------------------------------------------------------------------|
|--------------------9-9--------------------9-9---------------------|
|--------------------9-9--------------------9-9---------------------|
|--------------------7-7--------------------7-7---------------------|
|-------------------------------------------------------------------|
"Musn't take offence,    Mustn't take a bow"

|-------------------------------------------------------------------|
|-------------------------------------------------------------------|
|----------------------9-9-----------------------------9-9-9-9-9-9--|
|----------------------9-9-----------------------------9-9-9-9-9-9--|
|----------------------7-7-----------------------------7-7-7-7-7-7--|
|-------------------------------------------------------------------|
"Used to be a derilict,    now i have to live with it!"

Chorus

|-------------------------------------------------------------------|
|-------------------------------------------------------------------|
|-----------9----------9-7-10---------------------------------------|
|---0-0-0-0-9--0-0-0-0-9-7-10---------------------------------------| x8
|---0-0-0-0-7--0-0-0-0-7-5-8----------------------------------------|
|---0-0-0-0----0-0-0-0----------------------------------------------|

3rd Verse

|-------------------------------------------------------------------|
|-------------------------------------------------------------------|
|-----------9---------9---9-----------------------------------------|
|---0-0-0-0-9-0-0-0-0-9-0-9-----------------------------------------| x12
|---0-0-0-0-7-0-0-0-0-7-0-7-----------------------------------------|
|---0-0-0-0---0-0-0-0---0-------------------------------------------|

Chorus

|-------------------------------------------------------------------|
|-------------------------------------------------------------------|
|-----------9----------9-7-10---------------------------------------|
|---0-0-0-0-9--0-0-0-0-9-7-10---------------------------------------| x8
|---0-0-0-0-7--0-0-0-0-7-5-8----------------------------------------|
|---0-0-0-0----0-0-0-0----------------------------------------------|

Bridge

|-------------------------------------------------------------------|
|-------------------------------------------------------------------|
|-----------9---------9---9-----------------------------------------|
|---0-0-0-0-9-0-0-0-0-9-0-9-----------------------------------------| x8
|---0-0-0-0-7-0-0-0-0-7-0-7-----------------------------------------|
|---0-0-0-0---0-0-0-0---0-------------------------------------------|
    "GOT NO TIME TO TIME TO TIME, ONCE AGAIN"

Outro

|-------------------------------------------------------------------|
|-------------------------------------------------------------------|
|-----------9----------9-7-10---------------------------------------|
|---0-0-0-0-9--0-0-0-0-9-7-10---------------------------------------| x8
|---0-0-0-0-7--0-0-0-0-7-5-8----------------------------------------|
|---0-0-0-0----0-0-0-0----------------------------------------------|
    "You dont want me, you dont need me"

|-------|
|-------|
|---9---|
|---9---| hold note
|---7---|
|-------|

Then there is the keyboard outro.
Comments