Stone Sour - Take A Number Chords & Tabs

 

Take A Number Chords & Tabs

Stone Sour Chords & Tabs

Version: 2 Type: Tab 0 ratings
1 star 2 stars 3 stars 4 stars 5 stars
comments

Take A Number Tab

   
Song: Take a Number
Artist: Stone Sour
Album: Stone Sour
Tabbed by: Christian / silent_warrior_@hotmail.com

Tuning: B F# B E G# C#

/ - Slide up
* - Harmonic


Intro
|------------------------------------------------|      |-------|
|------------------------------------------------|      |-------|
|-9/11-------9/11-----7----9/11-------9/11-----7-| x2   |-14-16-| x1
|---------------------7------------------------7-|      |-------|
|-7/9--------7/9------5----7/9--------7/9------5-|      |-12-14-|
|------5-0-0------5-0-----------5-0-0------5-0---|      |-------|


Verse: Bass Only


Let's go!
|---------------|      |---------------|
|---------------|      |---------------|
|-9-9-9-9-9-9-7-| x3   |---------------| x1
|-9-9-9-9-9-9-7-|      |-7-7-7-7-7-7-5-|
|-7-7-7-7-7-7-5-|      |-7-7-7-7-7-7-5-|
|---------------|      |-7-7-7-7-7-7-5-|


|----------------------|     |---------------|    
|----------------------|     |---------------|    
|-12-12-12-12-12-12-11-| x3  |---------------| x1 
|----------------------|     |-7-7-7-7-7-7-5-|    
|-10-10-10-10-10-10--9-|     |-7-7-7-7-7-7-5-|    
|----------------------|     |-7-7-7-7-7-7-5-|   


|----------------------------------------------------|
|-------------------------5*-5*--5*-5*--5*-5*--5*-5*-|
|-------------5*-5*-5*-5*----------------------------| x1
|-------5*-5*----------------------------------------|
|-5*-5*----------------------------------------------|
|----------------------------------------------------|


Verse: Bass Only

[ Tab from: http://www.guitartabs.cc/tabs/s/stone_sour/take_a_number_tab_ver_2.html ]
|---------------|     |---------------|      |----------------------|    |---------------|
|---------------|     |---------------|      |----------------------|    |---------------|
|-9-9-9-9-9-9-7-| x3  |---------------| x1   |-12-12-12-12-12-12-11-| x3 |---------------| x1
|-9-9-9-9-9-9-7-|     |-7-7-7-7-7-7-5-|      |----------------------|    |-7-7-7-7-7-7-5-|
|-7-7-7-7-7-7-5-|     |-7-7-7-7-7-7-5-|      |-10-10-10-10-10-10--9-|    |-7-7-7-7-7-7-5-|
|---------------|     |-7-7-7-7-7-7-5-|      |----------------------|    |-7-7-7-7-7-7-5-|


|------------------------------------------------|
|------------------------------------------------|
|-9/11-------9/11-----7----9/11-------9/11-----7-| x2
|---------------------7------------------------7-|
|-7/9--------7/9------5----7/9--------7/9------5-|
|------5-0-0------5-0-----------5-0-0------5-0---|


|---------------|     |---------------|      |----------------------|    |---------------|
|---------------|     |---------------|      |----------------------|    |---------------|
|-9-9-9-9-9-9-7-| x3  |---------------| x1   |-12-12-12-12-12-12-11-| x3 |---------------| x1
|-9-9-9-9-9-9-7-|     |-7-7-7-7-7-7-5-|      |----------------------|    |-7-7-7-7-7-7-5-|
|-7-7-7-7-7-7-5-|     |-7-7-7-7-7-7-5-|      |-10-10-10-10-10-10--9-|    |-7-7-7-7-7-7-5-|
|---------------|     |-7-7-7-7-7-7-5-|      |----------------------|    |-7-7-7-7-7-7-5-|


Outro
|------------------------------------------------|       |-------|
|------------------------------------------------|       |-------| 
|-9/11-------9/11-----7----9/11-------9/11-----7-| x4    |-14-16-| x1
|---------------------7------------------------7-|       |-------| 
|-7/9--------7/9------5----7/9--------7/9------5-|       |-12-14-| 
|------5-0-0------5-0-----------5-0-0------5-0---|       |-------|
Comments