Stone Sour - Orchids Chords & Tabs

 

Orchids Chords & Tabs

Stone Sour Chords & Tabs

Version: 1 Type: Bass Tab 0 ratings
1 star 2 stars 3 stars 4 stars 5 stars
comments

Orchids Bass Tab

Stone Sour - Orchids
Submitted By: cam
EMail: laxman265@aol.com


5 string standard


Intro/weird part ("i have nothing left to loose..")
G|-------------------
D|-------------------
A|----14-14h15-14----14-14/17-15
E|--12-------------12---------
B|-0--------------0--------

G|-------------------
D|-------------------
A|----14-14h15-14--------14-14/17-15---
E|--12------------12--12---------------
B|-0----------------13-----------------x2
[ Tab from: http://www.guitartabs.cc/tabs/s/stone_sour/orchids_btab.html ]
Verse
G|-------------------
D|-------------------
A|-------------------
E|-------------------
B|-0-00-0-00-0-00-0-00x4 (after awhile its just strait opens without 
                          pause so u figure it out)

G|-------------------
D|-------------------
A|-------------------
E|-----------1--------
B|-0-00-0-1h2-1-------

Pre Chorus 
G|-------------------
D|-------------------
A|---too lazy----------------
E|-------------------
B|-------------------


Chorus
G|-------------------
D|-------------------
A|-------------------
E|-------1-----1------1----------
B|-0-3-0--0-3-0--0-3-0-333-111---x2
Comments