Stone Sour - Monolith Chords & Tabs

 

Monolith Chords & Tabs

Stone Sour Chords & Tabs

Version: 1 Type: Bass Tab 0 ratings
1 star 2 stars 3 stars 4 stars 5 stars
comments

Monolith Bass Tab

   
Band- Stone Sour
Song- Monolith

Tuning: B F# B E


E------------------------------------|
B------------------------------------|
F#-----------------------------------|
B-0---0---0---0--0--0--0--0--0--0--0-|

E-----------------------------------------|
B-----------------------------------------|
F#----------------------------------------| 4x
B-7777-8888-7777-8888-7777-8888-7777-8888-|

E----------------------------------|
B----------------------------------|
F#---------------------------------| 2x
B--12--8-7-5-3--7---12--8-7-5-3--7-|

E--------------------------------------------------------|
B--------------------------------------------------------|
F#-------------------------------------------------------| 2x
B-0-0-0--0-0-0--0-0-0--0-0-0--0-0-0--0-0-0--0-0-0--0-0-0-|

E-----------------------------------------|
B-----------------------------------------|
F#----------------------------------------| 4x
B-7777-8888-7777-8888-7777-8888-7777-8888-|
[ Tab from: http://www.guitartabs.cc/tabs/s/stone_sour/monolith_btab.html ]
E----------------------------------------|
B----------------------------------------|
F#---------------------------------------| 2x
B--12--8-7-5-3--3--7---12--8-7-5-3--3--7-|

E-----------------------------------------------------------|
B-----------------------------------------------------------|
F#----------------------------------------------------------| 2x
B-0-0-0--0-0-0--0-0-0--0-0-0--0-0-0--0-0-0--0-0-0--0-0-0----|

E-------------------------------------------------|
B-------------------------------------------------|
F#------------------------------------------------| 3x
B-7777-8888-7777-8888--0-0-0--0-0-0--0-0-0--0-0-0-|

E-------------------------------------|
B-------------------------------------|
F#------------------------------------|
B-7777-8888-7777-8888-7-7-7-7-8-8-8-8-|

E----------------------------------------|
B----------------------------------------|
F#---------------------------------------| 2x
B--12--8-7-5-3--3--7---12--8-7-5-3--3--7-|

E---------------------------------     -----|
B---------------------------------     -----|
F#-------------------------------- 4x  -----|
B-00-00-00-00-78--00-00-00-00-78--     --0--|
Comments