Stone Sour - Inhale Chords & Tabs

 

Inhale Chords & Tabs

Stone Sour Chords & Tabs

Version: 3 Type: Tab 0 ratings
1 star 2 stars 3 stars 4 stars 5 stars
comments

Inhale Tab

   

 stone sour
 inhale
 B-F#-B-E-G#-C#

INTRO,CHORUS(GITZ 1)
|------------|
|------------|
|------------|
|----7-6-----|
|--5-----7-8-|
|------------|
INTRO 2,OUTRO(BOTH)
|------------|
|------------|
|------------|
|--0-7-6-2-3-|
|--0-7-6-2-3-|
|--0-7-6-2-3-|

VERSE(BOTH)
|--------------------------------|
|--------------------------------|
|--------------------------------|FIRST AND THIRD TIMES(GITZ 1)
|--777--------777-------101010-9-|                      
|--555--------555--------8-8-8-7-|
|--------------------------------|
[ Tab from: http://www.guitartabs.cc/tabs/s/stone_sour/inhale_tab_ver_3.html ]
|--------------------------------|
|--------------------------------|
|--------------------------------|SECOND TIME(GITZ 2)
|--777--------777-------10101012-|
|--555--------555--------8-8-810-|
|--------------------------------|

PRE-CHORUS
|----|
|----|
|----|
|--5-|
|--5-|
|--5-|
PM .

CHORUS(GITZ 2)
|----------------------|
|----------------------|
|----------------------|
|--0----3----5----8-10-|
|--0----3----5----8-10-|
|--0----3----5----8-10-|

BRIDGE
|----------------------------|
|----------------------------|
|----------------------------|
|--5---------8888---10101010-|
|--5---------8888---10101010-|
|--5---------8888---10101010-|





                               THERE.
Comments