Stone Sour - Inhale Chords & Tabs

 

Inhale Chords & Tabs

Stone Sour Chords & Tabs

Version: 12 Type: Tab 0 ratings
1 star 2 stars 3 stars 4 stars 5 stars
comments

Inhale Tab

hi guy stone sour rules


C#--------------
G#--------------
E --------------
B --0-7-8-2-3---
F#--------------
B -------------- Intro 1/Chorus 1

C#--------------
G#--------------
E --------------
B -0--7--6-----3
F#-0--7--6--7--3
B ----------7--- Intro 2/Chorus 2

C#--------------
G#--------------
E -7--7-7~------
B -7--7-7~------
F#-5--5-5~------
B -------------- Verse 1

C#--------------
G#--------------
E -10-10-10-9~--
B -10-10-10-9~--
F#-8--8--8--7~--
B -------------- Verse 2  

C#--------------
G#--------------
E -10-10-10-12~-
B -10-10-10-12~-
F#-8--8--8--10~-
B -------------- Verse 3 


C#--------------
G#--------------
E --------------
B -5-5-5-5------
F#-5-5-5-5------
B -5-5-5-5------ Pre-Chorus
p.m . . . .
[ Tab from: http://www.guitartabs.cc/tabs/s/stone_sour/inhale_tab_ver_12.html ]
C#--------------
G#--------------
E -7~-----------
B -7~-----------
F#-5~-----------
B -------------- Pre-Bridge

C#-----------------------------
G#-----------------------------
E -----------------------------
B -8-8-8-8----10-10-10-10----5~
F#-8-8-8-8----10-10-10-10----5~
B -8-8-8-8----10-10-10-10----5~ Bridge 1

C#------------------------------------------
G#------------------------------------------
E ------------------------------------------
B -8-8-8-8~---10-10-10-10~--10-10-10-10---5~
F#-8-8-8-8~---10-10-10-10~--10-10-10-10---5~
B -8-8-8-8~---10-10-10-10~--10-10-10-10---5~ Bridge 2

Structure

Intro 1    x4
Intro 2    x4
Verse 1    x2
Verse 2    x1
Verse 1    x2
Verse 3    x1
Verse 1    x2
Verse 2    x1
Pre-Chorus x8
Chorus 1   x8
Verse 1    x2
Verse 2    x1
Verse 1    x2
Verse 3    x1
Verse 1    x2
Verse 2    x1
Pre-Chorus x8
Chorus 1   x8
Pre Bridge x1
Bridge 1   x1
Bridge 2   x1
Bridge 1   x1
Bridge 2   x1
Pre-Chorus x2
Chorus 1   x8
Chorus 2   x4
Pre-Bridge x2
Comments