Stone Sour - Inhale Chords & Tabs

 

Inhale Chords & Tabs

Stone Sour Chords & Tabs

Version: 1 Type: Tab 0 ratings
1 star 2 stars 3 stars 4 stars 5 stars
comments

Inhale Tab

   
tuning: B F# B E Ab C#

PM= palm mute

riff 1:
C#|-------------------------|
Ab|-------------------------|
E |-------------------------|	
B |-0---7---6---------------|
F#|-------------7-----8-----|
B |-------------------------|

riff 2:
C#|-------------------------|
Ab|-------------------------|
E |-------------------------|	
B |-------------------------|
F#|-0---7---6---2-----3-----|
B |-0---7---6---2-----3-----|

riff 3:
C#|---------------|
Ab|---------------|
E |---------------|	
B |-2-------------|
F#|-2-------------|
B |-2-------------|

riff 4:
C#|-----------------------------------------|
Ab|-----------------------------------------|
E |-----------------------------------------|	
B |-----------------------------------------|
F#|-5---5---5---5---5---5---5---5---5---5---|
B |-5---5---5---5---5---5---5---5---5---5---|
   |___________________PM__________________|
[ Tab from: http://www.guitartabs.cc/tabs/s/stone_sour/inhale_tab.html ]
riff 5
part 1:
C#|-----------------------------------------------------------|
Ab|-----------------------------------------------------------|
E |-----------------------------------------------------------|	
B |-----------------------------------------------------------|
F#|-9-9-9-9----11-11-11-11----5---5---5---5---5---5---5---5---|
B |-9-9-9-9----11-11-11-11----5---5---5---5---5---5---5---5---|

C#|-----------------------------------------------------------------------------|
Ab|-----------------------------------------------------------------------------|
E |-----------------------------------------------------------------------------|
B |-----------------------------------------------------------------------------|
F#|-9----9----9----9----11----11----11----11----5---5---5---5---5---5---5---5---|
B |-9----9----9----9----11----11----11----11----5---5---5---5---5---5---5---5---|


part 2:
C#|-----------------------------------|
Ab|-----------------------------------|
E |-----------------------------------|	
B |-----------------------------------|
F#|-5---5---5---5---5---5---5---5---5-|
B |-5---5---5---5---5---5---5---5---5-|

outro:
C#|----------------------------------------------|
Ab|----------------------------------------------|
E |----------------------------------------------|	
B |-2--------------------------------------------|
F#|-2--------------------------------------------|
B |-2--------------------------------------------|
                     |______use whammy bar______|
Comments