Stone Sour - Get Inside Chords & Tabs

 

Get Inside Chords & Tabs

Stone Sour Chords & Tabs

Version: 7 Type: Tab 0 ratings
1 star 2 stars 3 stars 4 stars 5 stars
comments

Get Inside Tab

   
Get Inside-Stone Sour 
Stone Sour

Drop B:
B F# B E G# C#

< > = Pinch harmonics

Intro:

x3
e-----------------------------------------------------------------
b-----------------------------------------------------------------
g-----------------------------------------------------------------
d-----------------------------------------------------------------
a-----------------------------------------------------------------
d-3-2-1-0-0-0-3-2-1-0-0-0-1-0-1-0-3-2-1-0-0-0-3-2-1-0-0-0--3--6---

then,
[ Tab from: http://www.guitartabs.cc/tabs/s/stone_sour/get_inside_tab_ver_7.html ]
e-------------------------------------------------------------------------
b-------------------------------------------------------------------------
g-------------------------------------------------------------------------
d-------------------------------------------------------------------------
a----------------------------------------------------------3--6-----3--2--
d-3-2-1-0-0-0-3-2-1-0-0-0-1-0-1-0-3-2-1-0-0-0-2-1-0-0-0-0--3--6-----3--2--

Fig. 1

e--------------------------------------------------------------------
b--------------------------------------------------------------------
g--------------------------------------------------------------------
d--------------------------------------------------------------------
a-0---0-0--0-6---0-0---0---1p0-1p0--0---0-0--0-6---0-0--0-0----------
d-0---0-0--0-6---0-0---0---1p0-1p0--0---0-0--0-6---0-0--0-0-3h6-<2>--



*taken from the offical sheet music*

trevor jones
timmy91199@yahoo.ca
Comments