Stone Sour - Get Inside Chords & Tabs

 

Get Inside Chords & Tabs

Stone Sour Chords & Tabs

Version: 5 Type: Tab 0 ratings
1 star 2 stars 3 stars 4 stars 5 stars
comments

Get Inside Tab

   
Stone Sour - Get Inside
Album: Stone Sour
Tuning: B F# B E G C
* = Artifical Harmonic
Tabbed By: Dean K. (projectwyze13@hotmail.com) 


|-----------------------------------||-----------| 
|-----------------------------------||-----------| 
|-----------------------------------||-----------| 
|-----------------------------------||-----------| 
|-----------------------------------||-5-6--1-2--| 
|-2-1-1-1-2-1-1-1-2-1-2-1-1-1--5-6--||-5-6--1-2--| 


    PM--|       PM|             PM--|       PM| 
|-------------------------------------------------------| 
|-------------------------------------------------------| 
|-------------------------------------------------------| 
|----------------------------------------------------*5-| 
|-0-------6-5-0-----1-0-1-0---0-------6-5-0------5-6----| 
|-0-0-0-0-6-5-0-0-0-1-0-1-0---0-0-0-0-6-5-0-0-0---------| 

[ Tab from: http://www.guitartabs.cc/tabs/s/stone_sour/get_inside_tab_ver_5.html ]
|----------------------------------------| 
|----------------------------------------| 
|----------------------------------------| 
|----------------------------------------| 
|-0-0-0-0-0-0-------0-0-0-0-0-0----*6-*5-|
|-0-0-0-0-0-0-0-1-5-0-0-0-0-0-0-2-1------| 


                                           
|-----------------|--------------------------| 
|-----------------|--------------------------| 
|-8-7-8-7-8-7-8-7-|-8-7-8-7-8-7--------------| 
|-8-7-8-7-8-7-8-7-|-8-7-8-7-8-7--------------| 
|-6-5-6-5-6-5-6-5-|-6-5-6-5-6-5--------*6-*5-| 
|-----------------|-------------0-1-6-5------| 

                 PM------|        
|-------------------------| 
|-------------------------| 
|-------------------------| 
|-3/5-0--3-0-3/5----------| 
|-3/5-0--3-0-3/5----------|
|-3/5-0--3-0-3/5--5-6-5-0-|  
                 

  PM------------| 
|------------------||------------------|| 
|------------------||------------------||
|------------------||------------------||
|------------------||------------------|| 
|------------------||-5-6-5-0-3-0-3-5--||  
|-5-6-5-0-3-0-3-5--||-5-6-5-0-3-0-3-5--||
Comments