Stone Sour - Get Inside Chords & Tabs

 

Get Inside Chords & Tabs

Stone Sour Chords & Tabs

Version: 1 Type: Bass Tab 0 ratings
1 star 2 stars 3 stars 4 stars 5 stars
comments

Get Inside Bass Tab

   
Tabbed by Stephen Finnerty       stephenfinnerty@hotmail.com 

Tuning:D,A,E,B

4-string:
d------------------------------------------------------|
a------------------------------------------------------|
e------------------------------------------------------|
b-2-2-22-2-2-22-2-2-22-2-2-22-2-2-22-2-2-22-2-2-22-00--|

the heavy part
d----------------------------------------------|
a----------------------------------------------|
e----------------------------------------------|
b-0-000-65-00-0-0-1-0-1-0-000-65-00-0-0-1-0-1--|

verse
d----------------------------------------------------------|
e----------------------------------------------------------|
a----------------------------------------------------------|
b-00-0000-00-0000--5--00-0000-00-0000--5--00-0000-00-0000--|

..........wring the blood from my hands..........
d---------------------------------------------------|
e---------------------------------------------------|
a--8-7-8-7-8-7-8-777/6/5\8-8-7-8-7-8-7-8-777/6/5\8--|
b---------------------------------------------------|
[ Tab from: http://www.guitartabs.cc/tabs/s/stone_sour/get_inside_btab.html ]
chorus
d----------------------|
a----------------------|
e----------------------|
b--3-5-0-3-0-35-56-50--|

this again
d-----------------------------------------|
a-----------------------------------------|
e-----------------------------------------|
b-00-0000-00-0000--5--00-0000-00-0000--5--|

..........wring the blood from my hands..........
d-----------------------------------------------|
a-----------------------------------------------|
e--8-7-8-7-8-7-777/6/5\8-8-7-8-7-8-7-777/6/5\8--|
b-----------------------------------------------|

chorus again
d------------------------|
a------------------------|
e------------------------|
b--3-5-0-3-0-3-5-56-5-0--|

then play this
d---------------------------------|
a---------------------------------|
e---------------------------------|
b--5650-3030-5650-3035-5650-3035--|

when the guitar solo starts play this
d------------------------------------------------|
e------------------------------------------------|
a------------------------------------------------|
b-0-000-65-00-0-0-1-0-1-0-000-65-00-0-0-1-0-1-0--|

outro
d---------------------------------------------|
a---------------------------------------------|
e---------------------------------------------|
b-2-1111-2-1111-2-1111-2-1111-2-1111-2-11112--|

Please rate my tab
Comments