Stone Sour - Cold Reader Chords & Tabs

 

Cold Reader Chords & Tabs

Stone Sour Chords & Tabs

Version: 3 Type: Tab 0 ratings
1 star 2 stars 3 stars 4 stars 5 stars
comments

Cold Reader Tab

   
Stone Sour - Cold Reader

Tabbed by Tinboy

Tuning:  B F# B E G# C#

/ - Slide up
^ - Bend 
PM - Palm mute

Intro

|------------------------------------------------------------------------|
|------------------------------------------------------------------------|
|------------------------------------------------------------------------|
|---0-0-0-3-3-3-2/3--3-3-3-1-1-1-2/3-------------------------------------|
|---0-0-0-3-3-3-2/3--3-3-3-1-1-1-2/3-------------------------------------| x4
|---0-0-0-3-3-3-2/3--3-3-3-1-1-1-2/3-------------------------------------|
|------------------------------------------------------------------------|
			   ^
		   4th time hold note
Verse

|------------------------------------------------------------------------|
|------------------------------------------------------------------------|
|------------------------------------------------------------------------|
|---0-0-0-0--3-3-3-3--2-2-2-2-5-5-5-5--1-1-1-1--3-3-3-3------------------| x4
|---0-0-0-0--3-3-3-3--2-2-2-2-5-5-5-5--1-1-1-1--3-3-3-3------------------|
|---0-0-0-0--3-3-3-3--2-2-2-2-5-5-5-5--1-1-1-1--3-3-3-3------------------|
PM  - - - -  - - - -  - - - - - - - -  - - - -  - - - -

Pre chorus

|------------------------------------------------------------------------|
|---3-2-3--3-2-3--2----7-------------------------------------------------|
|---x-x-x--x-x-x--x----x-------------------------------------------------|
|---1-0-1--1-0-1--0----5-------------------------------------------------|
|------------------------------------------------------------------------|
|------------------------------------------------------------------------|
                  ^    ^
                  hold notes
Chorus

|------------------------------------------------------------------------|
|------------------------------------------------------------7-7-7-7-----|
|------------------------------------------------------------x-x-x-x-----|
|---0-3-0-----0-3--0-3-0-----0-3--0-3-0-----0-3--0-3-0-------5-5-5-5-----|
|---0-3-0-----0-3--0-3-0-----0-3--0-3-0-----0-3--0-3-0-------------------|
|---0-3-0--3^-0-3--0-3-0--3^-0-3--0-3-0--3^-0-3--0-3-0--3^---------------|

|------------------------------------------------------------------------|
|------------------------------------------------------------------------|
|------------------------------------------------------------------------|
|---0-3-0-----0-3--0-3-0-----0-3--0-3-0-----0-3--0-3-0-------------------|
|---0-3-0-----0-3--0-3-0-----0-3--0-3-0-----0-3--0-3-0-------------------|
|---0-3-0--3^-0-3--0-3-0--3^-0-3--0-3-0--3^-0-3--0-3-0--3^---------------|
	     						  hold bend
Bridge

|------------------------------------------------------------------------|
|------------------------------------------------------------------------|
|------------------------------------------------------------------------|
|---0-0-0-0--3-3-3-3--2-2-2-2-5-5-5-5--1-1-1-1--3-3-3-3------------------| x2
|---0-0-0-0--3-3-3-3--2-2-2-2-5-5-5-5--1-1-1-1--3-3-3-3------------------|
|---0-0-0-0--3-3-3-3--2-2-2-2-5-5-5-5--1-1-1-1--3-3-3-3------------------|

Verse
[ Tab from: http://www.guitartabs.cc/tabs/s/stone_sour/cold_reader_tab_ver_3.html ]
|------------------------------------------------------------------------|
|------------------------------------------------------------------------|
|------------------------------------------------------------------------|
|---0-0-0-0--3-3-3-3--2-2-2-2-5-5-5-5--1-1-1-1--3-3-3-3------------------| x4
|---0-0-0-0--3-3-3-3--2-2-2-2-5-5-5-5--1-1-1-1--3-3-3-3------------------|
|---0-0-0-0--3-3-3-3--2-2-2-2-5-5-5-5--1-1-1-1--3-3-3-3------------------|
PM  - - - -  - - - -  - - - - - - - -  - - - -  - - - -

Pre chorus

|------------------------------------------------------------------------|
|---3-2-3--3-2-3-2----7--------------------------------------------------|
|---x-x-x--x-x-x-x----x--------------------------------------------------|
|---1-0-1--1-0-1-0----5--------------------------------------------------|
|------------------------------------------------------------------------|
|------------------------------------------------------------------------|
                 ^    ^
                 hold notes
Chorus

|------------------------------------------------------------------------|
|------------------------------------------------------------7-7-7-7-----|
|------------------------------------------------------------x-x-x-x-----|
|---0-3-0-----0-3--0-3-0-----0-3--0-3-0-----0-3--0-3-0-------5-5-5-5-----|
|---0-3-0-----0-3--0-3-0-----0-3--0-3-0-----0-3--0-3-0-------------------|
|---0-3-0--3^-0-3--0-3-0--3^-0-3--0-3-0--3^-0-3--0-3-0--3^---------------|

|------------------------------------------------------------------------|
|------------------------------------------------------------------------|
|------------------------------------------------------------------------|
|---0-3-0-----0-3--0-3-0-----0-3--0-3-0-----0-3--0-3-0-------------------| x3
|---0-3-0-----0-3--0-3-0-----0-3--0-3-0-----0-3--0-3-0-------------------|
|---0-3-0--3^-0-3--0-3-0--3^-0-3--0-3-0--3^-0-3--0-3-0--3^---------------|
	     						  hold bend
Verse

|------------------------------------------------------------------------|
|------------------------------------------------------------------------|
|------------------------------------------------------------------------|
|---0-0-0-0--3-3-3-3--2-2-2-2-5-5-5-5--1-1-1-1--3-3-3-3------------------| x4
|---0-0-0-0--3-3-3-3--2-2-2-2-5-5-5-5--1-1-1-1--3-3-3-3------------------|
|---0-0-0-0--3-3-3-3--2-2-2-2-5-5-5-5--1-1-1-1--3-3-3-3------------------|
PM  - - - -  - - - -  - - - - - - - -  - - - -  - - - -

Pre chorus

|------------------------------------------------------------------------|
|---3-2-3--3-2-3-2----7--------------------------------------------------|
|---x-x-x--x-x-x-x----x--------------------------------------------------|
|---1-0-1--1-0-1-0----5--------------------------------------------------|
|------------------------------------------------------------------------|
|------------------------------------------------------------------------|
                 ^    ^
                 hold notes
Chorus

|------------------------------------------------------------------------|
|------------------------------------------------------------7-7-7-7-----|
|------------------------------------------------------------x-x-x-x-----|
|---0-3-0-----0-3--0-3-0-----0-3--0-3-0-----0-3--0-3-0-------5-5-5-5-----|
|---0-3-0-----0-3--0-3-0-----0-3--0-3-0-----0-3--0-3-0-------------------|
|---0-3-0--3^-0-3--0-3-0--3^-0-3--0-3-0--3^-0-3--0-3-0--3^---------------|

|------------------------------------------------------------------------|
|------------------------------------------------------------------------|
|------------------------------------------------------------------------|
|---0-3-0-----0-3--0-3-0-----0-3--0-3-0-----0-3--0-3-0-------------------| x3
|---0-3-0-----0-3--0-3-0-----0-3--0-3-0-----0-3--0-3-0-------------------|
|---0-3-0--3^-0-3--0-3-0--3^-0-3--0-3-0--3^-0-3--0-3-0--3^---------------|
	     						  hold bend
Comments