Stone Sour - Cold Reader Chords & Tabs

 

Cold Reader Chords & Tabs

Stone Sour Chords & Tabs

Version: 2 Type: Tab 0 ratings
1 star 2 stars 3 stars 4 stars 5 stars
comments

Cold Reader Tab

   
Song: Cold Reader
Artist: Stone Sour
Album: Stone Sour
Tabbed by:  Christian / silent_warrior_@hotmail.com

Tuning:  B F# B E G# C#

/ - Slide up
^ - Bend 
PM - Palm mute


Intro - Guitar 1
|-----------------------------------------|
|-----------------------------------------|
|-----------------------------------------| x4
|-0-0-0-0-3-3-3-3-2/3-3-3-3-3-1-1-1-1-2/3-|
|-0-0-0-0-3-3-3-3-2/3-3-3-3-3-1-1-1-1-2/3-|
|-0-0-0-0-3-3-3-3-2/3-3-3-3-3-1-1-1-1-2/3-|


Intro - Guitar 2
|------------------------------------------------|
|------------------------------------------------|
|-7-7-7-7/10-10-10-10-8/10-10-10-10-8-8-8-8-8/10-| x2
|------------------------------------------------|
|-5-5-5-5/-8--8--8--8-6/-8--8--8--8-6-6-6-6-6/-8-|
|------------------------------------------------|


Verse
|-----------------------------------------------------|
|-----------------------------------------------------|
|-----------------------------------------------------| x4
|-0-0-0-0--3-3-3-3--2-2-2-2-5-5-5-5--1-1-1-1--2-3-3-3-|
|-0-0-0-0--3-3-3-3--2-2-2-2-5-5-5-5--1-1-1-1--2-3-3-3-|
|-0-0-0-0--3-3-3-3--2-2-2-2-5-5-5-5--1-1-1-1--2-3-3-3-|
PM- - - -  - - - -  - - - - - - - -  - - - -  - - - - 


Pre chorus
|------------|
|4-4-4-4-4-4-|
|------------|
|1-1-1-1-1-1-|
|------------|
|------------|


Chorus
|--------------|
|--------------|
|--------------| x8
|-2-3-2--------|
|-2-3-2--------|
|-2-3-2-3^-1-3-|

[ Tab from: http://www.guitartabs.cc/tabs/s/stone_sour/cold_reader_tab_ver_2.html ]
|-----------------------------------------------------|
|-----------------------------------------------------|
|-----------------------------------------------------| x4
|-0-0-0-0--3-3-3-3--2-2-2-2-5-5-5-5--1-1-1-1--2-3-3-3-|
|-0-0-0-0--3-3-3-3--2-2-2-2-5-5-5-5--1-1-1-1--2-3-3-3-|
|-0-0-0-0--3-3-3-3--2-2-2-2-5-5-5-5--1-1-1-1--2-3-3-3-|



Verse
|-----------------------------------------------------|
|-----------------------------------------------------|
|-----------------------------------------------------| x4
|-0-0-0-0--3-3-3-3--2-2-2-2-5-5-5-5--1-1-1-1--2-3-3-3-|
|-0-0-0-0--3-3-3-3--2-2-2-2-5-5-5-5--1-1-1-1--2-3-3-3-|
|-0-0-0-0--3-3-3-3--2-2-2-2-5-5-5-5--1-1-1-1--2-3-3-3-|
PM- - - -  - - - -  - - - - - - - -  - - - -  - - - - 


Pre chorus
|------------|
|4-4-4-4-4-4-|
|------------|
|1-1-1-1-1-1-|
|------------|
|------------|


Chorus
|--------------|
|--------------|
|--------------| x16
|-2-3-2--------|
|-2-3-2--------|
|-2-3-2-3^-1-3-|


Verse
|-----------------------------------------------------|
|-----------------------------------------------------|
|-----------------------------------------------------| x4
|-0-0-0-0--3-3-3-3--2-2-2-2-5-5-5-5--1-1-1-1--2-3-3-3-|
|-0-0-0-0--3-3-3-3--2-2-2-2-5-5-5-5--1-1-1-1--2-3-3-3-|
|-0-0-0-0--3-3-3-3--2-2-2-2-5-5-5-5--1-1-1-1--2-3-3-3-|
PM- - - -  - - - -  - - - - - - - -  - - - -  - - - - 

|------------|
|4-4-4-4-4-4-|
|------------|
|1-1-1-1-1-1-|
|------------|
|------------|


Outro
|--------------|
|--------------|
|--------------| x16
|-2-3-2--------|
|-2-3-2--------|
|-2-3-2-3^-1-3-|
Comments