Stone Sour - Bother Chords & Tabs

 

Bother Chords & Tabs

Stone Sour Chords & Tabs

Version: 7 Type: Tab 1 rating
1 star 2 stars 3 stars 4 stars 5 stars
comments

Bother Tab

intro/verses
-6-------------------------6-----|-------------------------------------------------
-6^7---6---6^7^6-----------7--6--|---------------------------7-6---7^6^7-----------
-6-----6----------8-7------6--6--|-------6-6-6-6--x-x--6-6---------------8^7---6---
-6^8---6---------------8------6--|--6-6--6-6-6-6--x-x--8-6-------------------8-6---
-6-----6---------------7------6--|--4-4--4-4-4-4--x-x--6-6-------------------6-----
---------------------------------|-------------------------------------------------

---------------------------------------------------------------------
-----6--6^7--6------------7-7-7-7------------------------------------
--8--6--6----6---6-6-6-6--6-6-6-6--x-x--6-6--------------------------
--8--6--6^8--6---6-6-6-6--6-6-6-6--x-x--6-6-x------------------------
--7--6--6----6---4-4-4-4--4-4-4-4--x-x--4-4-x------------------------
--0------------------------------------------------------------------
chorus
----------------------------------------------------------------------------
------6^7--6--7---------------------------6^7--6----------------------------
------6----6--6--x-7-x-x-x-7-x-x-x-7--8---6----6--4-4-4-4-4--6-6-6-6-6------
--8---6^8--6--8--x-8-x-x-x-8-x-x-x-8--8---6^8--6--4-4-4-4-4--6-6-6-6-6------
--7---6----6--6--x-8-x-x-x-8-x-x-x-8--7---6----6--2-2-2-2-2--4-4-4-4-4------
-----------9-----x-6-x-x-x-6-x-x-x-6-----------9----------------------------
after chorus go back to the verse. 
[ Tab from: http://www.guitartabs.cc/tabs/s/stone_sour/bother_tab_ver_7.html ]
pre chorus in verse 2
--6-6-6-6-6-6-------------------------------------------------------------
--7-7-7-7-7-7-------------------------------------------------------------
--6-6-6-6-6-6--x--7-7-7-x-7-7-7-7--x--4-4-4-4--6-6-6-6--------------------
--8-8-8-8-8-8--x--8-8-8-x-8-8-8-8--x--4-4-4-4--6-6-6-6--------------------
--6-6-6-6-6-6--x--8-8-8-x-8-8-8-8--x--2-2-2-2--4-4-4-4--------------------
---------------x--7-7-7-x-7-7-7-7--x--------------------------------------
after pre chorus go back to the chorus.

guitar solo
--------------------------------------------------------------------
--9^7^6^7------6^7^6------------------------------------------9'----
----------6^8---------6^8'-6^8------6--------------------6^8--------
--------------------------------6^8---6^8--8\----4^6-6/8------------
----------------------------------------------4^6-------------------
--------------------------------------------------------------------

--------------------------------------------------------------------
--7-7^9^7-/-6^7^6-/-4^6^4-/-3^4-/-8-6-------------------------------
--------------------------------------6^8--6^8----------------------
-----------------------------------------------6^8------------------
--------------------------------------------------------------------
--------------------------------------------------------------------

third verse is the same as the first verse.listen to the song for exact timing 
and how many times to play chordes and notes.

ending.
------------------------------------------------------------------------------
--7-7-7---6--6^7------------------6^7--6^7--6^7--6^7---6--6-------------------
--6-6-6---6--6----7-7-7-7-7-7-7---6----6----6----6-----6--6--4-4-4-4--6-6-6-6-
--8-8-8---6--6^8--8-8-8-8-8-8-8---6^8--6^8--6^8--6^8---6--6--4-4-4-4--6-6-6-6-
--6-7-7---5--6----8-8-8-8-8-8-8---6----6----6----6-----4--4--2-2-2-2--4-4-4-4-
------------------6-6-6-6-6-6-6------------------------0----------------------

then go back to the beginning and you finished.hope this tab helped
im sorry if anything looks funny it is my first tab.thrash/heavy metal rules.
Comments