Stone Sour - Bother Chords & Tabs

 

Bother Chords & Tabs

Stone Sour Chords & Tabs

Version: 20 Type: Tab 0 ratings
1 star 2 stars 3 stars 4 stars 5 stars
comments

Bother Tab

Stone Sour - Bother
Tabbed by: Xavieres
Standard Tuning

Verse 1:
|---------|-----------------|
|-7-------|-7-6--------7----|
|-8----6--|-----8-6----8--6-|
|-8----6--|---------8-----6-|
|-6----6--|---------6-----6-|
|---------|-----------------|
          |________x3_______|


Verse 2:
|-------------------------------------------------|
|-7----------7------------------------------------|
|-8----6-----8----6--------------6-----6--6-6-6-6-|
|-8----6-----8----6-----6--6--6--6--6--6--6-6-6-6-|
|-6----6-----6----6-----4--4--4--4--4--4--4-4-4-4-|
|-------------------------------------------------|

|--------------------------------------------------------------------|
|-7------7-6---------7----------7------------------------------------|
|-8----6-----8-6-----8----6-----8----6--------------6-----6--6-6-6-6-|
|-8----6---------8-6-8----6-----8----6-----6--6--6--6--6--6--6-6-6-6-|
|-6----6-------------6----6-----6----6-----4--4--4--4--4--4--4-4-4-4-|
|--------------------------------------------------------------------|

|----------------------------------|
|-7---7-7-7------------------------|
|-8---8-8-8-10--10-10--10-10-10-10-|
|-8---8-8-8-11--11-11--11-11-11-11-|
|-6---6-6-6-11--11-11--11-11-11-11-|
|------------9---9--9---9--9--9--9-|


Chorus:
|-------------------------------------------------|
|-7-----------7-----------------------------------|
|-8----10-----8-----7-7-7---7-7-7-7---7-7--7--7-7-|
|-8----11-----8-----8-8-8---8-8-8-8---8-8--8--8-8-|
|-6----11-----6-----8-8-8---8-8-8-8---8-8--8--8-8-|
|-------9-----------6-6-6---6-6-6-6---6-6--6--6-6-|

|-------------------------------------------------------------------|
|-7-----------------------------------------------------------------|
|-8----10-----4---4-4-4-4---4-4--4-4-4-4-6---6-6-6-6---6-6--6-6-6-6-|
|-8----11-----4---4-4-4-4---4-4--4-4-4-4-6---6-6-6-6---6-6--6-6-6-6-|
|-6----11-----2---2-2-2-2---2-2--2-2-2-2-4---4-4-4-4---4-4--4-4-4-4-|
|-------9-----------------------------------------------------------|


Verse 3:
|---------|-----------------|
|-7-------|-7-6--------7----|
|-8----6--|-----8-6----8--6-|
|-8----6--|---------8-----6-|
|-6----6--|---------6-----6-|
|---------|-----------------|
          |________x3_______|


Verse 4:
|-------------------------------------------------|
|-7----------7------------------------------------|
|-8----6-----8----6--------------6-----6--6-6-6-6-|
|-8----6-----8----6-----6--6--6--6--6--6--6-6-6-6-|
|-6----6-----6----6-----4--4--4--4--4--4--4-4-4-4-|
|-------------------------------------------------|

|--------------------------------------------------------------------|
|-7------7-6---------7----------7------------------------------------|
|-8----6-----8-6-----8----6-----8----6--------------6-----6--6-6-6-6-|
|-8----6---------8-6-8----6-----8----6-----6--6--6--6--6--6--6-6-6-6-|
|-6----6-------------6----6-----6----6-----4--4--4--4--4--4--4-4-4-4-|
|--------------------------------------------------------------------|

|----------------------------------|
|-7---7-7-7------------------------|
|-8---8-8-8-10--10-10--10-10-10-10-|
|-8---8-8-8-11--11-11--11-11-11-11-|
|-6---6-6-6-11--11-11--11-11-11-11-|
|------------9---9--9---9--9--9--9-|

[ Tab from: http://www.guitartabs.cc/tabs/s/stone_sour/bother_tab_ver_20.html ]
Verse 5:
|-----------------------------------------------------|
|-7----7---7-7-7-7--7-7-7-7---------------------------|
|-8----8---8-8-8-8--8-8-8-8-7----7---7-7-7-7--7-7-7-7-|
|-8----8---8-8-8-8--8-8-8-8-8----8---8-8-8-8--8-8-8-8-|
|-6----6---6-6-6-6--6-6-6-6-8----8---8-8-8-8--8-8-8-8-|
|---------------------------6----6---6-6-6-6--6-6-6-6-|

|-----------------------------------------------------|
|-----------------------------------------------------|
|-4----4---4-4-4-4--4-4-4-4-6----6---6-6-6-6--6-6-6-6-|
|-4----4---4-4-4-4--4-4-4-4-6----6---6-6-6-6--6-6-6-6-|
|-2----2---2-2-2-2--2-2-2-2-4----4---4-4-4-4--4-4-4-4-|
|-----------------------------------------------------|


Chorus:
|-------------------------------------------------|
|-7-----------7-----------------------------------|
|-8----10-----8-----7-7-7---7-7-7-7---7-7--7--7-7-|
|-8----11-----8-----8-8-8---8-8-8-8---8-8--8--8-8-|
|-6----11-----6-----8-8-8---8-8-8-8---8-8--8--8-8-|
|-------9-----------6-6-6---6-6-6-6---6-6--6--6-6-|

|-------------------------------------------------------------------|
|-7-----------------------------------------------------------------|
|-8----10-----4---4-4-4-4---4-4--4-4-4-4-6---6-6-6-6---6-6--6-6-6-6-|
|-8----11-----4---4-4-4-4---4-4--4-4-4-4-6---6-6-6-6---6-6--6-6-6-6-|
|-6----11-----2---2-2-2-2---2-2--2-2-2-2-4---4-4-4-4---4-4--4-4-4-4-|
|-------9-----------------------------------------------------------|

|------------|
|-7----------|
|-8----------|
|-8---(Solo)-|
|-6----------|
|------------|


Verse 6:
|---------|------------6----|
|-7-------|-7-6--------7----|
|-8----6--|-----8-6----8--6-|
|-8----6--|---------8-----6-|
|-6----6--|---------6-----6-|
|---------|-----------------|
          |________x3_______|


Verse 7:
|-------------------------------------------------|
|-7----------7------------------------------------|
|-8----6-----8----6--------------6-----6--6-6-6-6-|
|-8----6-----8----6-----6--6--6--6--6--6--6-6-6-6-|
|-6----6-----6----6-----4--4--4--4--4--4--4-4-4-4-|
|-------------------------------------------------|

|--------------------------------------------------------------------|
|-7------7-6---------7----------7------------------------------------|
|-8----6-----8-6-----8----6-----8----6--------------6-----6--6-6-6-6-|
|-8----6---------8-6-8----6-----8----6-----6--6--6--6--6--6--6-6-6-6-|
|-6----6-------------6----6-----6----6-----4--4--4--4--4--4--4-4-4-4-|
|--------------------------------------------------------------------|

|----------------------------------|
|-7---7-7-7------------------------|
|-8---8-8-8-10--10-10--10-10-10-10-|
|-8---8-8-8-11--11-11--11-11-11-11-|
|-6---6-6-6-11--11-11--11-11-11-11-|
|------------9---9--9---9--9--9--9-|


Chorus: x2
|-------------------------------------------------|
|-7-----------7-----------------------------------|
|-8----10-----8-----7-7-7---7-7-7-7---7-7--7--7-7-|
|-8----11-----8-----8-8-8---8-8-8-8---8-8--8--8-8-|
|-6----11-----6-----8-8-8---8-8-8-8---8-8--8--8-8-|
|-------9-----------6-6-6---6-6-6-6---6-6--6--6-6-|

|-------------------------------------------------------------------|
|-7-----------------------------------------------------------------|
|-8----10-----4---4-4-4-4---4-4--4-4-4-4-6---6-6-6-6---6-6--6-6-6-6-|
|-8----11-----4---4-4-4-4---4-4--4-4-4-4-6---6-6-6-6---6-6--6-6-6-6-|
|-6----11-----2---2-2-2-2---2-2--2-2-2-2-4---4-4-4-4---4-4--4-4-4-4-|
|-------9-----------------------------------------------------------|


Verse 3:
|---------|-----------------|--------|
|-7-------|-7-6--------7----|--------|
|-8----6--|-----8-6----8--6-|----7---|
|-8----6--|---------8-----6-|---8----|
|-6----6--|---------6-----6-|--8-----|
|---------|-----------------|-6------|
          |________x3_______|
Comments