Stone Sour - Blotter Chords & Tabs

 

Blotter Chords & Tabs

Stone Sour Chords & Tabs

Version: 1 Type: Tab 0 ratings
1 star 2 stars 3 stars 4 stars 5 stars
comments

Blotter Tab

Stone Sour
Blotter                     
Tabbed by: Geoff Dingle

My guitar teacher taught me this so it should be correct.
Tuning: Drop D down 1 1/2 steps       

Intro:

C#------------------------------------------------------
G#------------------------------------------------------
E-----------------------4-------------------------------
B-----------------------2--------3/4/3------------------
F#-2-0-2---6-5-3-0--2-------2----1/2/1------------------
B--2-0-2---6-5-3-0--2-------2---------------------------

Verse:
[ Tab from: http://www.guitartabs.cc/tabs/s/stone_sour/blotter_tab.html ]
C#-----------------------------------------------------
G#-----------------------------------------------------
E----------------------------------------5*--5*--5*----
B-----------3-----------------3------------------------
F#-2--0--2--1-2---0--2--0--2--1--2--0------------------
B--2--0--2----2---0--2--0--2-----2--0------------------

Chorus:

C#-----------------------------------------------------
G#-----------------------------------------------------
E------------------------------------------------------
B-------------------------------------------------------
F#-5-2---0--2--5--2--0--2--0---2--6--6------------------
B--5-2---0--2--5--2--0--2--0---2--6--6------------------
I don't know how many times you repeat these but it's easy to figure out.
that's all I have for now, I know my timing is off but it's my first tab 
and the only one for this song.       *=harmonics
Questions: thepsycho4@yahoo.com

Comments