Stone Roses - Waterfall Chords & Tabs

 

Waterfall Chords & Tabs

Stone Roses Chords & Tabs

Version: 4 Type: Tab

Waterfall Tab

   
-------------------------------------------------
Waterfall by Stone Roses
------------------------------------------------
Tabbed by: Jack The Hat
E-Mail: jackthehat93@hotmail.co.uk

This is the same as the verse 2 version but Ive simplified
it, and its my first tab so wish me luck.

 e|-----------------------|
 B|-----------------------|
 G|-----11----------------|
 D|--------11--9-8-9------|x8
 A|---9-------------------|
 E|-----------------------|
[ Tab from: http://www.guitartabs.cc/tabs/s/stone_roses/waterfall_tab_ver_4.html ]
 e|-----------------------|                       e|-----------------|
 B|-------------7----7----|                       B|-------7---------|
 G|--11---11--------------|x2 but next time only  G|-----------------|
 D|-9--9-8--8-6---66---6--|do one 7 & one 6       D|--8-6----6-------|
 A|-----------------------|after it, as in....... A|-----------------|
 E|-----------------------|                       E|-----------------|

 Then do this strait after the 6.

 e|-----------------------|
 B|-----99--7-------------|
 G|-----------------------|
 D|-----------------------|
 A|-----------------------|
 E|-----------------------|

Then go back to the start, and this is literally the whole song.


| /  slide up
|   slide down
| h  hammer-on
| p  pull-off
| ~  vibrato
| +  harmonic
| x  Mute note
============================================================================